ISO-10303-21;
HEADER;
FILE_DESCRIPTION (( 'STEP AP214' ),
    '1' );
FILE_NAME ('UEBK-30998_2017_11_28.STEP',
    '2017-11-28T09:54:49',
    ( '' ),
    ( '' ),
    'SwSTEP 2.0',
    'SolidWorks 2017',
    '' );
FILE_SCHEMA (( 'AUTOMOTIVE_DESIGN' ));
ENDSEC;

DATA;
#1 = DIRECTION ( 'NONE',  ( -0.0000000000000000000, -1.000000000000000000, 0.0000000000000000000 ) ) ;
#2 = EDGE_LOOP ( 'NONE', ( #77, #129, #222, #302 ) ) ;
#3 = DIRECTION ( 'NONE',  ( -1.000000000000000000, 0.0000000000000000000, 0.0000000000000000000 ) ) ;
#4 = AXIS2_PLACEMENT_3D ( 'NONE', #97, #67, #125 ) ;
#5 = ADVANCED_FACE ( 'NONE', ( #223, #15 ), #270, .F. ) ;
#6 = CARTESIAN_POINT ( 'NONE',  ( 1.997212043766868600, 0.0000000000000000000, 14.00000000000000000 ) ) ;
#7 = ORIENTED_EDGE ( 'NONE', *, *, #113, .T. ) ;
#8 = DIRECTION ( 'NONE',  ( -0.0000000000000000000, -0.0000000000000000000, 1.000000000000000000 ) ) ;
#9 = EDGE_CURVE ( 'NONE', #366, #49, #26, .T. ) ;
#10 = CIRCLE ( 'NONE', #368, 2.499133232195200000 ) ;
#11 = CARTESIAN_POINT ( 'NONE',  ( 0.0000000000000000000, 0.0000000000000000000, 7.126493915538484100 ) ) ;
#12 = SURFACE_STYLE_USAGE ( .BOTH. , #157 ) ;
#13 = CARTESIAN_POINT ( 'NONE',  ( -3.000000000000000400, 3.673940397442060400E-016, 5.000000000000002700 ) ) ;
#14 = DIRECTION ( 'NONE',  ( 1.000000000000000000, -1.224646799147353200E-016, 0.0000000000000000000 ) ) ;
#15 = FACE_BOUND ( 'NONE', #194, .T. ) ;
#16 = DIRECTION ( 'NONE',  ( -0.0000000000000000000, -0.0000000000000000000, 1.000000000000000000 ) ) ;
#17 = APPLICATION_CONTEXT ( 'automotive_design' ) ;
#18 = DIRECTION ( 'NONE',  ( 0.0000000000000000000, 0.0000000000000000000, -1.000000000000000000 ) ) ;
#19 = AXIS2_PLACEMENT_3D ( 'NONE', #146, #199, #230 ) ;
#20 = AXIS2_PLACEMENT_3D ( 'NONE', #267, #327, #298 ) ;
#21 = CARTESIAN_POINT ( 'NONE',  ( 0.0000000000000000000, 0.0000000000000000000, 4.000000000000000000 ) ) ;
#22 = DIRECTION ( 'NONE',  ( 1.000000000000000000, 0.0000000000000000000, 0.0000000000000000000 ) ) ;
#23 = ORIENTED_EDGE ( 'NONE', *, *, #206, .F. ) ;
#24 = ORIENTED_EDGE ( 'NONE', *, *, #89, .T. ) ;
#25 = CONICAL_SURFACE ( 'NONE', #54, 2.499133232195200000, 0.001570357841952300900 ) ;
#26 = CIRCLE ( 'NONE', #363, 2.499133232195200000 ) ;
#27 = AXIS2_PLACEMENT_3D ( 'NONE', #11, #210, #14 ) ;
#28 = LINE ( 'NONE', #95, #56 ) ;
#29 = PRODUCT_DEFINITION_SHAPE ( 'NONE', 'NONE',  #43 ) ;
#30 = STYLED_ITEM ( 'NONE', ( #52 ), #124 ) ;
#31 = DIRECTION ( 'NONE',  ( -1.000000000000000000, 0.0000000000000000000, 0.0000000000000000000 ) ) ;
#32 = DIRECTION ( 'NONE',  ( -0.0000000000000000000, -0.0000000000000000000, 1.000000000000000000 ) ) ;
#33 = AXIS2_PLACEMENT_3D ( 'NONE', #182, #156, #92 ) ;
#34 = EDGE_CURVE ( 'NONE', #83, #167, #309, .T. ) ;
#35 = ADVANCED_FACE ( 'NONE', ( #317 ), #86, .T. ) ;
#36 = CARTESIAN_POINT ( 'NONE',  ( -2.484999999999998500, 0.0000000000000000000, 14.00000000000000000 ) ) ;
#37 = CARTESIAN_POINT ( 'NONE',  ( 0.0000000000000000000, 0.0000000000000000000, 14.00000000000000200 ) ) ;
#38 = DIRECTION ( 'NONE',  ( -0.0000000000000000000, -1.000000000000000000, 0.0000000000000000000 ) ) ;
#39 = CARTESIAN_POINT ( 'NONE',  ( 0.0000000000000000000, 0.0000000000000000000, 5.000000000000002700 ) ) ;
#40 = CARTESIAN_POINT ( 'NONE',  ( -2.084370374403316200, 0.0000000000000000000, 14.00000000000000000 ) ) ;
#41 =( NAMED_UNIT ( * ) PLANE_ANGLE_UNIT ( ) SI_UNIT ( $, .RADIAN. ) );
#42 = LINE ( 'NONE', #6, #79 ) ;
#43 = PRODUCT_DEFINITION ( 'UNKNOWN', '', #81, #190 ) ;
#44 = DIRECTION ( 'NONE',  ( -0.0000000000000000000, -0.0000000000000000000, 1.000000000000000000 ) ) ;
#45 = CARTESIAN_POINT ( 'NONE',  ( 0.0000000000000000000, 0.0000000000000000000, 14.00000000000000000 ) ) ;
#46 = CARTESIAN_POINT ( 'NONE',  ( 2.499133232195200000, 3.060555513450630600E-016, 5.000000000000002700 ) ) ;
#47 = LINE ( 'NONE', #358, #283 ) ;
#48 =( LENGTH_UNIT ( ) NAMED_UNIT ( * ) SI_UNIT ( .MILLI., .METRE. ) );
#49 = VERTEX_POINT ( 'NONE', #256 ) ;
#50 = PRESENTATION_LAYER_ASSIGNMENT (  '', '', ( #30 ) ) ;
#51 = ORIENTED_EDGE ( 'NONE', *, *, #259, .T. ) ;
#52 = PRESENTATION_STYLE_ASSIGNMENT (( #12 ) ) ;
#53 = AXIS2_PLACEMENT_3D ( 'NONE', #37, #237, #262 ) ;
#54 = AXIS2_PLACEMENT_3D ( 'NONE', #39, #294, #238 ) ;
#55 = EDGE_LOOP ( 'NONE', ( #134, #114, #84, #120 ) ) ;
#56 = VECTOR ( 'NONE', #153, 1000.000000000000000 ) ;
#57 = AXIS2_PLACEMENT_3D ( 'NONE', #136, #245, #276 ) ;
#58 = ORIENTED_EDGE ( 'NONE', *, *, #34, .T. ) ;
#59 = DIRECTION ( 'NONE',  ( -0.0000000000000000000, -0.0000000000000000000, 1.000000000000000000 ) ) ;
#60 = CARTESIAN_POINT ( 'NONE',  ( 0.0000000000000000000, 0.0000000000000000000, 5.000000000000002700 ) ) ;
#61 = ADVANCED_FACE ( 'NONE', ( #82 ), #100, .T. ) ;
#62 = ORIENTED_EDGE ( 'NONE', *, *, #113, .F. ) ;
#63 = CARTESIAN_POINT ( 'NONE',  ( 0.0000000000000000000, 0.0000000000000000000, 4.000000000000000000 ) ) ;
#64 = MECHANICAL_DESIGN_GEOMETRIC_PRESENTATION_REPRESENTATION (  '', ( #30 ), #274 ) ;
#65 = CARTESIAN_POINT ( 'NONE',  ( 0.0000000000000000000, 0.0000000000000000000, 14.00000000000000000 ) ) ;
#66 = DIRECTION ( 'NONE',  ( 1.000000000000000000, 0.0000000000000000000, 0.0000000000000000000 ) ) ;
#67 = DIRECTION ( 'NONE',  ( 0.0000000000000000000, 0.0000000000000000000, -1.000000000000000000 ) ) ;
#68 = VECTOR ( 'NONE', #32, 1000.000000000000000 ) ;
#69 = DIRECTION ( 'NONE',  ( -0.0000000000000000000, -0.0000000000000000000, 1.000000000000000000 ) ) ;
#70 =( NAMED_UNIT ( * ) PLANE_ANGLE_UNIT ( ) SI_UNIT ( $, .RADIAN. ) );
#71 = UNCERTAINTY_MEASURE_WITH_UNIT (LENGTH_MEASURE( 1.000000000000000100E-005 ), #211, 'distance_accuracy_value', 'NONE');
#72 = ORIENTED_EDGE ( 'NONE', *, *, #34, .F. ) ;
#73 = APPLICATION_PROTOCOL_DEFINITION ( 'draft international standard', 'automotive_design', 1998, #324 ) ;
#74 = CARTESIAN_POINT ( 'NONE',  ( 0.0000000000000000000, 0.0000000000000000000, 0.0000000000000000000 ) ) ;
#75 = PRESENTATION_LAYER_ASSIGNMENT (  '', '', ( #333 ) ) ;
#76 = EDGE_CURVE ( 'NONE', #349, #359, #159, .T. ) ;
#77 = ORIENTED_EDGE ( 'NONE', *, *, #94, .F. ) ;
#78 = VERTEX_POINT ( 'NONE', #13 ) ;
#79 = VECTOR ( 'NONE', #352, 1000.000000000000000 ) ;
#80 = VERTEX_POINT ( 'NONE', #128 ) ;
#81 = PRODUCT_DEFINITION_FORMATION_WITH_SPECIFIED_SOURCE ( 'ANY', '', #277, .NOT_KNOWN. ) ;
#82 = FACE_OUTER_BOUND ( 'NONE', #325, .T. ) ;
#83 = VERTEX_POINT ( 'NONE', #299 ) ;
#84 = ORIENTED_EDGE ( 'NONE', *, *, #249, .T. ) ;
#85 = COLOUR_RGB ( '',0.8274509803921568100, 0.6666666666666666300, 0.1294117647058823400 ) ;
#86 = SPHERICAL_SURFACE ( 'NONE', #323, 7.126493915538484100 ) ;
#87 = CARTESIAN_POINT ( 'NONE',  ( -3.000000000000000400, 3.673940397442060400E-016, 4.000000000000000000 ) ) ;
#88 = DIRECTION ( 'NONE',  ( 1.000000000000000000, 0.0000000000000000000, 0.0000000000000000000 ) ) ;
#89 = EDGE_CURVE ( 'NONE', #376, #322, #147, .T. ) ;
#90 = EDGE_LOOP ( 'NONE', ( #24, #308 ) ) ;
#91 = DIRECTION ( 'NONE',  ( -1.000000000000000000, 0.0000000000000000000, 0.0000000000000000000 ) ) ;
#92 = DIRECTION ( 'NONE',  ( 1.000000000000000000, 0.0000000000000000000, 0.0000000000000000000 ) ) ;
#93 = VERTEX_POINT ( 'NONE', #102 ) ;
#94 = EDGE_CURVE ( 'NONE', #167, #78, #172, .T. ) ;
#95 = CARTESIAN_POINT ( 'NONE',  ( -2.499133232195200000, 0.0000000000000000000, 5.000000000000002700 ) ) ;
#96 = FACE_OUTER_BOUND ( 'NONE', #278, .T. ) ;
#97 = CARTESIAN_POINT ( 'NONE',  ( 0.0000000000000000000, 0.0000000000000000000, 13.60000049320464500 ) ) ;
#98 = CARTESIAN_POINT ( 'NONE',  ( -1.997212043766868600, 0.0000000000000000000, 4.000000000000000000 ) ) ;
#99 = ORIENTED_EDGE ( 'NONE', *, *, #326, .T. ) ;
#100 = CONICAL_SURFACE ( 'NONE', #346, 2.084370374403314900, 0.7869685212393958700 ) ;
#101 = FILL_AREA_STYLE ('',( #264 ) ) ;
#102 = CARTESIAN_POINT ( 'NONE',  ( 1.997212043766868600, 0.0000000000000000000, 4.000000000000000000 ) ) ;
#103 = CARTESIAN_POINT ( 'NONE',  ( -3.000000000000000400, 0.0000000000000000000, 5.000000000000002700 ) ) ;
#104 = SPHERICAL_SURFACE ( 'NONE', #286, 7.126493915538484100 ) ;
#105 = CARTESIAN_POINT ( 'NONE',  ( 1.997212043766869400, -2.445879336617640600E-016, 0.2855831881250947600 ) ) ;
#106 = DIRECTION ( 'NONE',  ( -0.0000000000000000000, -0.0000000000000000000, 1.000000000000000000 ) ) ;
#107 = VERTEX_POINT ( 'NONE', #185 ) ;
#108 = EDGE_CURVE ( 'NONE', #49, #366, #10, .T. ) ;
#109 = CIRCLE ( 'NONE', #27, 7.126493915538484100 ) ;
#110 = AXIS2_PLACEMENT_3D ( 'NONE', #63, #261, #291 ) ;
#111 = EDGE_CURVE ( 'NONE', #164, #226, #372, .T. ) ;
#112 = ORIENTED_EDGE ( 'NONE', *, *, #89, .F. ) ;
#113 = EDGE_CURVE ( 'NONE', #107, #78, #212, .T. ) ;
#114 = ORIENTED_EDGE ( 'NONE', *, *, #208, .T. ) ;
#115 = PRODUCT_RELATED_PRODUCT_CATEGORY ( 'part', '', ( #277 ) ) ;
#116 = DIRECTION ( 'NONE',  ( -0.0000000000000000000, -0.0000000000000000000, 1.000000000000000000 ) ) ;
#117 = VECTOR ( 'NONE', #69, 1000.000000000000000 ) ;
#118 = DIRECTION ( 'NONE',  ( 0.0000000000000000000, 0.0000000000000000000, 1.000000000000000000 ) ) ;
#119 = CARTESIAN_POINT ( 'NONE',  ( 0.0000000000000000000, 0.0000000000000000000, 7.126493915538484100 ) ) ;
#120 = ORIENTED_EDGE ( 'NONE', *, *, #108, .T. ) ;
#121 = CARTESIAN_POINT ( 'NONE',  ( 0.0000000000000000000, 0.0000000000000000000, 7.126493915538484100 ) ) ;
#122 = CARTESIAN_POINT ( 'NONE',  ( 2.485628142878610000, 3.052286031248750000E-016, 13.60000049320464500 ) ) ;
#123 = ADVANCED_FACE ( 'NONE', ( #171 ), #25, .T. ) ;
#124 = MANIFOLD_SOLID_BREP ( 'Fase1', #341 ) ;
#125 = DIRECTION ( 'NONE',  ( 1.000000000000000000, 0.0000000000000000000, 0.0000000000000000000 ) ) ;
#126 = CIRCLE ( 'NONE', #231, 1.997212043766868600 ) ;
#127 = CARTESIAN_POINT ( 'NONE',  ( 2.084370374403316200, 2.798317028148730800E-016, 14.00000000000000000 ) ) ;
#128 = CARTESIAN_POINT ( 'NONE',  ( -1.997212043766868600, 2.445879336617639100E-016, 4.000000000000000000 ) ) ;
#129 = ORIENTED_EDGE ( 'NONE', *, *, #168, .T. ) ;
#130 = DIRECTION ( 'NONE',  ( -0.7082163195382154000, 0.0000000000000000000, -0.7059954990931205400 ) ) ;
#131 = FACE_OUTER_BOUND ( 'NONE', #248, .T. ) ;
#132 = DIRECTION ( 'NONE',  ( 1.000000000000000000, 0.0000000000000000000, 0.0000000000000000000 ) ) ;
#133 =( LENGTH_UNIT ( ) NAMED_UNIT ( * ) SI_UNIT ( .MILLI., .METRE. ) );
#134 = ORIENTED_EDGE ( 'NONE', *, *, #306, .F. ) ;
#135 = CARTESIAN_POINT ( 'NONE',  ( 0.0000000000000000000, 0.0000000000000000000, 14.00000000000000000 ) ) ;
#136 = CARTESIAN_POINT ( 'NONE',  ( 0.0000000000000000000, 0.0000000000000000000, 5.000000000000002700 ) ) ;
#137 = EDGE_CURVE ( 'NONE', #349, #80, #297, .T. ) ;
#138 = ORIENTED_EDGE ( 'NONE', *, *, #76, .T. ) ;
#139 = EDGE_CURVE ( 'NONE', #322, #226, #47, .T. ) ;
#140 = FACE_OUTER_BOUND ( 'NONE', #200, .T. ) ;
#141 = ORIENTED_EDGE ( 'NONE', *, *, #154, .F. ) ;
#142 = VERTEX_POINT ( 'NONE', #303 ) ;
#143 = FACE_OUTER_BOUND ( 'NONE', #181, .T. ) ;
#144 = CIRCLE ( 'NONE', #160, 7.126493915538484100 ) ;
#145 = EDGE_LOOP ( 'NONE', ( #300, #284, #220 ) ) ;
#146 = CARTESIAN_POINT ( 'NONE',  ( 0.0000000000000000000, 0.0000000000000000000, 4.000000000000000000 ) ) ;
#147 = CIRCLE ( 'NONE', #342, 2.084370374403316200 ) ;
#148 = DIRECTION ( 'NONE',  ( 0.0000000000000000000, 0.0000000000000000000, -1.000000000000000000 ) ) ;
#149 = DIRECTION ( 'NONE',  ( -0.0000000000000000000, -0.0000000000000000000, 1.000000000000000000 ) ) ;
#150 = EDGE_CURVE ( 'NONE', #376, #164, #255, .T. ) ;
#151 = ADVANCED_FACE ( 'NONE', ( #221, #131 ), #275, .F. ) ;
#152 = EDGE_LOOP ( 'NONE', ( #158, #315, #205, #162 ) ) ;
#153 = DIRECTION ( 'NONE',  ( -0.001570357196529091100, 0.0000000000000000000, -0.9999987669883775300 ) ) ;
#154 = EDGE_CURVE ( 'NONE', #142, #349, #144, .T. ) ;
#155 = ORIENTED_EDGE ( 'NONE', *, *, #139, .F. ) ;
#156 = DIRECTION ( 'NONE',  ( 0.0000000000000000000, 0.0000000000000000000, -1.000000000000000000 ) ) ;
#157 = SURFACE_SIDE_STYLE ('',( #357 ) ) ;
#158 = ORIENTED_EDGE ( 'NONE', *, *, #111, .T. ) ;
#159 = CIRCLE ( 'NONE', #334, 1.997212043766868600 ) ;
#160 = AXIS2_PLACEMENT_3D ( 'NONE', #332, #344, #118 ) ;
#161 = CARTESIAN_POINT ( 'NONE',  ( 0.0000000000000000000, 0.0000000000000000000, 0.2855831881250943100 ) ) ;
#162 = ORIENTED_EDGE ( 'NONE', *, *, #249, .F. ) ;
#163 = APPLICATION_PROTOCOL_DEFINITION ( 'draft international standard', 'automotive_design', 1998, #17 ) ;
#164 = VERTEX_POINT ( 'NONE', #320 ) ;
#165 = CYLINDRICAL_SURFACE ( 'NONE', #311, 1.997212043766868600 ) ;
#166 = CIRCLE ( 'NONE', #110, 1.997212043766868600 ) ;
#167 = VERTEX_POINT ( 'NONE', #87 ) ;
#168 = EDGE_CURVE ( 'NONE', #167, #83, #272, .T. ) ;
#169 = ORIENTED_EDGE ( 'NONE', *, *, #150, .T. ) ;
#170 = EDGE_CURVE ( 'NONE', #78, #107, #340, .T. ) ;
#171 = FACE_OUTER_BOUND ( 'NONE', #55, .T. ) ;
#172 = LINE ( 'NONE', #268, #184 ) ;
#173 = FACE_OUTER_BOUND ( 'NONE', #145, .T. ) ;
#174 = DIRECTION ( 'NONE',  ( -0.0000000000000000000, -0.0000000000000000000, 1.000000000000000000 ) ) ;
#175 = AXIS2_PLACEMENT_3D ( 'NONE', #375, #59, #254 ) ;
#176 = CARTESIAN_POINT ( 'NONE',  ( 0.0000000000000000000, 0.0000000000000000000, 14.00000000000000200 ) ) ;
#177 = CARTESIAN_POINT ( 'NONE',  ( 0.0000000000000000000, 0.0000000000000000000, 0.2855831881250943100 ) ) ;
#178 = DIRECTION ( 'NONE',  ( 1.000000000000000000, 0.0000000000000000000, 0.0000000000000000000 ) ) ;
#179 = DIRECTION ( 'NONE',  ( -0.0000000000000000000, -0.0000000000000000000, 1.000000000000000000 ) ) ;
#180 = PLANE ( 'NONE',  #355 ) ;
#181 = EDGE_LOOP ( 'NONE', ( #155, #112, #169, #289 ) ) ;
#182 = CARTESIAN_POINT ( 'NONE',  ( 0.0000000000000000000, 0.0000000000000000000, 13.60000049320464500 ) ) ;
#183 = CARTESIAN_POINT ( 'NONE',  ( -1.997212043766869400, 0.0000000000000000000, 0.2855831881250947600 ) ) ;
#184 = VECTOR ( 'NONE', #356, 1000.000000000000000 ) ;
#185 = CARTESIAN_POINT ( 'NONE',  ( 3.000000000000000400, 0.0000000000000000000, 5.000000000000002700 ) ) ;
#186 = CYLINDRICAL_SURFACE ( 'NONE', #215, 1.997212043766868600 ) ;
#187 = CARTESIAN_POINT ( 'NONE',  ( 0.0000000000000000000, 0.0000000000000000000, 14.00000000000000000 ) ) ;
#188 = DIRECTION ( 'NONE',  ( 1.000000000000000000, 0.0000000000000000000, 0.0000000000000000000 ) ) ;
#189 =( NAMED_UNIT ( * ) SI_UNIT ( $, .STERADIAN. ) SOLID_ANGLE_UNIT ( ) );
#190 = PRODUCT_DEFINITION_CONTEXT ( 'detailed design', #17, 'design' ) ;
#191 = FILL_AREA_STYLE ('',( #241 ) ) ;
#192 = SURFACE_SIDE_STYLE ('',( #263 ) ) ;
#193 = EDGE_CURVE ( 'NONE', #83, #107, #227, .T. ) ;
#194 = EDGE_LOOP ( 'NONE', ( #232, #313 ) ) ;
#195 = AXIS2_PLACEMENT_3D ( 'NONE', #290, #8, #91 ) ;
#196 = ORIENTED_EDGE ( 'NONE', *, *, #137, .F. ) ;
#197 = PRESENTATION_STYLE_ASSIGNMENT (( #360 ) ) ;
#198 = CYLINDRICAL_SURFACE ( 'NONE', #373, 3.000000000000000400 ) ;
#199 = DIRECTION ( 'NONE',  ( -0.0000000000000000000, -0.0000000000000000000, 1.000000000000000000 ) ) ;
#200 = EDGE_LOOP ( 'NONE', ( #58, #260, #62, #371 ) ) ;
#201 = CARTESIAN_POINT ( 'NONE',  ( 0.0000000000000000000, 0.0000000000000000000, 5.000000000000002700 ) ) ;
#202 = DIRECTION ( 'NONE',  ( 0.001570357196529091100, 1.923132914247362300E-019, -0.9999987669883775300 ) ) ;
#203 = ADVANCED_FACE ( 'NONE', ( #96 ), #165, .T. ) ;
#204 = DIRECTION ( 'NONE',  ( -1.000000000000000000, 0.0000000000000000000, 0.0000000000000000000 ) ) ;
#205 = ORIENTED_EDGE ( 'NONE', *, *, #9, .T. ) ;
#206 = EDGE_CURVE ( 'NONE', #93, #80, #166, .T. ) ;
#207 = UNCERTAINTY_MEASURE_WITH_UNIT (LENGTH_MEASURE( 1.000000000000000100E-005 ), #48, 'distance_accuracy_value', 'NONE');
#208 = EDGE_CURVE ( 'NONE', #226, #164, #365, .T. ) ;
#209 = FACE_OUTER_BOUND ( 'NONE', #90, .T. ) ;
#210 = DIRECTION ( 'NONE',  ( -1.224646799147353200E-016, -1.000000000000000000, -0.0000000000000000000 ) ) ;
#211 =( LENGTH_UNIT ( ) NAMED_UNIT ( * ) SI_UNIT ( .MILLI., .METRE. ) );
#212 = CIRCLE ( 'NONE', #20, 3.000000000000000400 ) ;
#213 = DIRECTION ( 'NONE',  ( -0.0000000000000000000, -0.0000000000000000000, 1.000000000000000000 ) ) ;
#214 = EDGE_LOOP ( 'NONE', ( #141, #314, #235 ) ) ;
#215 = AXIS2_PLACEMENT_3D ( 'NONE', #187, #271, #361 ) ;
#216 = DIRECTION ( 'NONE',  ( 0.0000000000000000000, 0.0000000000000000000, 1.000000000000000000 ) ) ;
#217 = ORIENTED_EDGE ( 'NONE', *, *, #168, .F. ) ;
#218 = PRODUCT_CONTEXT ( 'NONE', #324, 'mechanical' ) ;
#219 = EDGE_LOOP ( 'NONE', ( #196, #138, #51, #225 ) ) ;
#220 = ORIENTED_EDGE ( 'NONE', *, *, #326, .F. ) ;
#221 = FACE_BOUND ( 'NONE', #250, .T. ) ;
#222 = ORIENTED_EDGE ( 'NONE', *, *, #193, .T. ) ;
#223 = FACE_OUTER_BOUND ( 'NONE', #374, .T. ) ;
#224 = EDGE_CURVE ( 'NONE', #322, #376, #343, .T. ) ;
#225 = ORIENTED_EDGE ( 'NONE', *, *, #312, .F. ) ;
#226 = VERTEX_POINT ( 'NONE', #122 ) ;
#227 = LINE ( 'NONE', #285, #68 ) ;
#228 = ORIENTED_EDGE ( 'NONE', *, *, #137, .T. ) ;
#229 = COLOUR_RGB ( '',0.8274509803921568100, 0.6666666666666666300, 0.1294117647058823400 ) ;
#230 = DIRECTION ( 'NONE',  ( 1.000000000000000000, 0.0000000000000000000, 0.0000000000000000000 ) ) ;
#231 = AXIS2_PLACEMENT_3D ( 'NONE', #161, #330, #304 ) ;
#232 = ORIENTED_EDGE ( 'NONE', *, *, #206, .T. ) ;
#233 = ADVANCED_FACE ( 'NONE', ( #173 ), #104, .T. ) ;
#234 = DIRECTION ( 'NONE',  ( 1.000000000000000000, 0.0000000000000000000, 0.0000000000000000000 ) ) ;
#235 = ORIENTED_EDGE ( 'NONE', *, *, #76, .F. ) ;
#236 = ADVANCED_FACE ( 'NONE', ( #143 ), #282, .T. ) ;
#237 = DIRECTION ( 'NONE',  ( 0.0000000000000000000, 0.0000000000000000000, -1.000000000000000000 ) ) ;
#238 = DIRECTION ( 'NONE',  ( -1.000000000000000000, 0.0000000000000000000, 0.0000000000000000000 ) ) ;
#239 = VECTOR ( 'NONE', #130, 1000.000000000000100 ) ;
#240 = CARTESIAN_POINT ( 'NONE',  ( 0.0000000000000000000, 0.0000000000000000000, 14.00000000000000000 ) ) ;
#241 = FILL_AREA_STYLE_COLOUR ( '', #229 ) ;
#242 =( NAMED_UNIT ( * ) SI_UNIT ( $, .STERADIAN. ) SOLID_ANGLE_UNIT ( ) );
#243 = ORIENTED_EDGE ( 'NONE', *, *, #108, .F. ) ;
#244 = CARTESIAN_POINT ( 'NONE',  ( -1.997212043766868600, 2.445879336617639100E-016, 14.00000000000000000 ) ) ;
#245 = DIRECTION ( 'NONE',  ( 0.0000000000000000000, 0.0000000000000000000, -1.000000000000000000 ) ) ;
#246 = UNCERTAINTY_MEASURE_WITH_UNIT (LENGTH_MEASURE( 1.000000000000000100E-005 ), #133, 'distance_accuracy_value', 'NONE');
#247 =( NAMED_UNIT ( * ) PLANE_ANGLE_UNIT ( ) SI_UNIT ( $, .RADIAN. ) );
#248 = EDGE_LOOP ( 'NONE', ( #7, #369 ) ) ;
#249 = EDGE_CURVE ( 'NONE', #164, #49, #28, .T. ) ;
#250 = EDGE_LOOP ( 'NONE', ( #243, #292 ) ) ;
#251 =( GEOMETRIC_REPRESENTATION_CONTEXT ( 3 ) GLOBAL_UNCERTAINTY_ASSIGNED_CONTEXT ( ( #207 ) ) GLOBAL_UNIT_ASSIGNED_CONTEXT ( ( #48, #70, #189 ) ) REPRESENTATION_CONTEXT ( 'NONE', 'WORKASPACE' ) );
#252 = AXIS2_PLACEMENT_3D ( 'NONE', #98, #329, #296 ) ;
#253 = FACE_OUTER_BOUND ( 'NONE', #152, .T. ) ;
#254 = DIRECTION ( 'NONE',  ( 1.000000000000000000, 0.0000000000000000000, 0.0000000000000000000 ) ) ;
#255 = LINE ( 'NONE', #269, #239 ) ;
#256 = CARTESIAN_POINT ( 'NONE',  ( -2.499133232195200000, 0.0000000000000000000, 5.000000000000002700 ) ) ;
#257 = ADVANCED_FACE ( 'NONE', ( #209 ), #180, .F. ) ;
#258 = DIRECTION ( 'NONE',  ( 0.0000000000000000000, 0.0000000000000000000, -1.000000000000000000 ) ) ;
#259 = EDGE_CURVE ( 'NONE', #359, #93, #42, .T. ) ;
#260 = ORIENTED_EDGE ( 'NONE', *, *, #94, .T. ) ;
#261 = DIRECTION ( 'NONE',  ( -0.0000000000000000000, -0.0000000000000000000, 1.000000000000000000 ) ) ;
#262 = DIRECTION ( 'NONE',  ( -1.000000000000000000, 0.0000000000000000000, 0.0000000000000000000 ) ) ;
#263 = SURFACE_STYLE_FILL_AREA ( #191 ) ;
#264 = FILL_AREA_STYLE_COLOUR ( '', #85 ) ;
#265 = LINE ( 'NONE', #46, #353 ) ;
#266 = CARTESIAN_POINT ( 'NONE',  ( 2.499133232195200000, 3.060555513450630600E-016, 5.000000000000002700 ) ) ;
#267 = CARTESIAN_POINT ( 'NONE',  ( 0.0000000000000000000, 0.0000000000000000000, 5.000000000000002700 ) ) ;
#268 = CARTESIAN_POINT ( 'NONE',  ( -3.000000000000000400, 3.673940397442060400E-016, 14.00000000000000000 ) ) ;
#269 = CARTESIAN_POINT ( 'NONE',  ( -2.084370374403314900, 0.0000000000000000000, 14.00000000000000200 ) ) ;
#270 = PLANE ( 'NONE',  #252 ) ;
#271 = DIRECTION ( 'NONE',  ( -0.0000000000000000000, -0.0000000000000000000, 1.000000000000000000 ) ) ;
#272 = CIRCLE ( 'NONE', #19, 3.000000000000000400 ) ;
#273 = MECHANICAL_DESIGN_GEOMETRIC_PRESENTATION_REPRESENTATION (  '', ( #333 ), #367 ) ;
#274 =( GEOMETRIC_REPRESENTATION_CONTEXT ( 3 ) GLOBAL_UNCERTAINTY_ASSIGNED_CONTEXT ( ( #71 ) ) GLOBAL_UNIT_ASSIGNED_CONTEXT ( ( #211, #41, #242 ) ) REPRESENTATION_CONTEXT ( 'NONE', 'WORKASPACE' ) );
#275 = PLANE ( 'NONE',  #295 ) ;
#276 = DIRECTION ( 'NONE',  ( -1.000000000000000000, 0.0000000000000000000, 0.0000000000000000000 ) ) ;
#277 = PRODUCT ( 'UEBK-30998_2017_11_28', 'UEBK-30998_2017_11_28', '', ( #218 ) ) ;
#278 = EDGE_LOOP ( 'NONE', ( #99, #228, #23, #280 ) ) ;
#279 = ORIENTED_EDGE ( 'NONE', *, *, #139, .T. ) ;
#280 = ORIENTED_EDGE ( 'NONE', *, *, #259, .F. ) ;
#281 = AXIS2_PLACEMENT_3D ( 'NONE', #348, #149, #88 ) ;
#282 = CONICAL_SURFACE ( 'NONE', #53, 2.084370374403314900, 0.7869685212393958700 ) ;
#283 = VECTOR ( 'NONE', #335, 1000.000000000000100 ) ;
#284 = ORIENTED_EDGE ( 'NONE', *, *, #154, .T. ) ;
#285 = CARTESIAN_POINT ( 'NONE',  ( 3.000000000000000400, 0.0000000000000000000, 14.00000000000000000 ) ) ;
#286 = AXIS2_PLACEMENT_3D ( 'NONE', #121, #38, #3 ) ;
#287 = ADVANCED_FACE ( 'NONE', ( #140 ), #318, .T. ) ;
#288 = DIRECTION ( 'NONE',  ( -1.000000000000000000, 0.0000000000000000000, -0.0000000000000000000 ) ) ;
#289 = ORIENTED_EDGE ( 'NONE', *, *, #208, .F. ) ;
#290 = CARTESIAN_POINT ( 'NONE',  ( 0.0000000000000000000, 0.0000000000000000000, 14.00000000000000000 ) ) ;
#291 = DIRECTION ( 'NONE',  ( 1.000000000000000000, 0.0000000000000000000, 0.0000000000000000000 ) ) ;
#292 = ORIENTED_EDGE ( 'NONE', *, *, #9, .F. ) ;
#293 = FACE_OUTER_BOUND ( 'NONE', #219, .T. ) ;
#294 = DIRECTION ( 'NONE',  ( 0.0000000000000000000, 0.0000000000000000000, -1.000000000000000000 ) ) ;
#295 = AXIS2_PLACEMENT_3D ( 'NONE', #103, #18, #301 ) ;
#296 = DIRECTION ( 'NONE',  ( 1.000000000000000000, 0.0000000000000000000, 0.0000000000000000000 ) ) ;
#297 = LINE ( 'NONE', #244, #117 ) ;
#298 = DIRECTION ( 'NONE',  ( 1.000000000000000000, 0.0000000000000000000, 0.0000000000000000000 ) ) ;
#299 = CARTESIAN_POINT ( 'NONE',  ( 3.000000000000000400, 0.0000000000000000000, 4.000000000000000000 ) ) ;
#300 = ORIENTED_EDGE ( 'NONE', *, *, #370, .F. ) ;
#301 = DIRECTION ( 'NONE',  ( -1.000000000000000000, 0.0000000000000000000, -0.0000000000000000000 ) ) ;
#302 = ORIENTED_EDGE ( 'NONE', *, *, #170, .F. ) ;
#303 = CARTESIAN_POINT ( 'NONE',  ( -4.363718981403646300E-016, 0.0000000000000000000, 0.0000000000000000000 ) ) ;
#304 = DIRECTION ( 'NONE',  ( 1.000000000000000000, 0.0000000000000000000, 0.0000000000000000000 ) ) ;
#305 = ORIENTED_EDGE ( 'NONE', *, *, #150, .F. ) ;
#306 = EDGE_CURVE ( 'NONE', #226, #366, #265, .T. ) ;
#307 = SHAPE_DEFINITION_REPRESENTATION ( #29, #310 ) ;
#308 = ORIENTED_EDGE ( 'NONE', *, *, #224, .T. ) ;
#309 = CIRCLE ( 'NONE', #281, 3.000000000000000400 ) ;
#310 = ADVANCED_BREP_SHAPE_REPRESENTATION ( 'UEBK-30998_2017_11_28', ( #124, #345 ), #251 ) ;
#311 = AXIS2_PLACEMENT_3D ( 'NONE', #135, #174, #178 ) ;
#312 = EDGE_CURVE ( 'NONE', #80, #93, #339, .T. ) ;
#313 = ORIENTED_EDGE ( 'NONE', *, *, #312, .T. ) ;
#314 = ORIENTED_EDGE ( 'NONE', *, *, #370, .T. ) ;
#315 = ORIENTED_EDGE ( 'NONE', *, *, #306, .T. ) ;
#316 = AXIS2_PLACEMENT_3D ( 'NONE', #65, #351, #234 ) ;
#317 = FACE_OUTER_BOUND ( 'NONE', #214, .T. ) ;
#318 = CYLINDRICAL_SURFACE ( 'NONE', #316, 3.000000000000000400 ) ;
#319 = DIRECTION ( 'NONE',  ( 1.000000000000000000, 0.0000000000000000000, 0.0000000000000000000 ) ) ;
#320 = CARTESIAN_POINT ( 'NONE',  ( -2.485628142878610000, 0.0000000000000000000, 13.60000049320464500 ) ) ;
#321 = ADVANCED_FACE ( 'NONE', ( #293 ), #186, .T. ) ;
#322 = VERTEX_POINT ( 'NONE', #127 ) ;
#323 = AXIS2_PLACEMENT_3D ( 'NONE', #119, #1, #204 ) ;
#324 = APPLICATION_CONTEXT ( 'automotive_design' ) ;
#325 = EDGE_LOOP ( 'NONE', ( #328, #279, #362, #305 ) ) ;
#326 = EDGE_CURVE ( 'NONE', #359, #349, #126, .T. ) ;
#327 = DIRECTION ( 'NONE',  ( -0.0000000000000000000, -0.0000000000000000000, 1.000000000000000000 ) ) ;
#328 = ORIENTED_EDGE ( 'NONE', *, *, #224, .F. ) ;
#329 = DIRECTION ( 'NONE',  ( 0.0000000000000000000, -0.0000000000000000000, 1.000000000000000000 ) ) ;
#330 = DIRECTION ( 'NONE',  ( -0.0000000000000000000, -0.0000000000000000000, 1.000000000000000000 ) ) ;
#331 = CONICAL_SURFACE ( 'NONE', #57, 2.499133232195200000, 0.001570357841952300900 ) ;
#332 = CARTESIAN_POINT ( 'NONE',  ( 0.0000000000000000000, 0.0000000000000000000, 7.126493915538484100 ) ) ;
#333 = STYLED_ITEM ( 'NONE', ( #197 ), #310 ) ;
#334 = AXIS2_PLACEMENT_3D ( 'NONE', #177, #213, #188 ) ;
#335 = DIRECTION ( 'NONE',  ( 0.7082163195382154000, 8.673148488263944700E-017, -0.7059954990931205400 ) ) ;
#336 = DIRECTION ( 'NONE',  ( 1.000000000000000000, 0.0000000000000000000, 0.0000000000000000000 ) ) ;
#337 =( NAMED_UNIT ( * ) SI_UNIT ( $, .STERADIAN. ) SOLID_ANGLE_UNIT ( ) );
#338 = AXIS2_PLACEMENT_3D ( 'NONE', #21, #106, #336 ) ;
#339 = CIRCLE ( 'NONE', #338, 1.997212043766868600 ) ;
#340 = CIRCLE ( 'NONE', #175, 3.000000000000000400 ) ;
#341 = CLOSED_SHELL ( 'NONE', ( #61, #350, #287, #203, #35, #233, #321, #5, #347, #151, #123, #257, #236 ) ) ;
#342 = AXIS2_PLACEMENT_3D ( 'NONE', #45, #16, #354 ) ;
#343 = CIRCLE ( 'NONE', #195, 2.084370374403316200 ) ;
#344 = DIRECTION ( 'NONE',  ( 0.0000000000000000000, 1.000000000000000000, 0.0000000000000000000 ) ) ;
#345 = AXIS2_PLACEMENT_3D ( 'NONE', #74, #216, #22 ) ;
#346 = AXIS2_PLACEMENT_3D ( 'NONE', #176, #148, #31 ) ;
#347 = ADVANCED_FACE ( 'NONE', ( #364 ), #198, .T. ) ;
#348 = CARTESIAN_POINT ( 'NONE',  ( 0.0000000000000000000, 0.0000000000000000000, 4.000000000000000000 ) ) ;
#349 = VERTEX_POINT ( 'NONE', #183 ) ;
#350 = ADVANCED_FACE ( 'NONE', ( #253 ), #331, .T. ) ;
#351 = DIRECTION ( 'NONE',  ( -0.0000000000000000000, -0.0000000000000000000, 1.000000000000000000 ) ) ;
#352 = DIRECTION ( 'NONE',  ( -0.0000000000000000000, -0.0000000000000000000, 1.000000000000000000 ) ) ;
#353 = VECTOR ( 'NONE', #202, 1000.000000000000000 ) ;
#354 = DIRECTION ( 'NONE',  ( -1.000000000000000000, 0.0000000000000000000, 0.0000000000000000000 ) ) ;
#355 = AXIS2_PLACEMENT_3D ( 'NONE', #36, #258, #288 ) ;
#356 = DIRECTION ( 'NONE',  ( -0.0000000000000000000, -0.0000000000000000000, 1.000000000000000000 ) ) ;
#357 = SURFACE_STYLE_FILL_AREA ( #101 ) ;
#358 = CARTESIAN_POINT ( 'NONE',  ( 2.084370374403314900, 2.552617507250589300E-016, 14.00000000000000200 ) ) ;
#359 = VERTEX_POINT ( 'NONE', #105 ) ;
#360 = SURFACE_STYLE_USAGE ( .BOTH. , #192 ) ;
#361 = DIRECTION ( 'NONE',  ( 1.000000000000000000, 0.0000000000000000000, 0.0000000000000000000 ) ) ;
#362 = ORIENTED_EDGE ( 'NONE', *, *, #111, .F. ) ;
#363 = AXIS2_PLACEMENT_3D ( 'NONE', #60, #116, #319 ) ;
#364 = FACE_OUTER_BOUND ( 'NONE', #2, .T. ) ;
#365 = CIRCLE ( 'NONE', #33, 2.485628142878610000 ) ;
#366 = VERTEX_POINT ( 'NONE', #266 ) ;
#367 =( GEOMETRIC_REPRESENTATION_CONTEXT ( 3 ) GLOBAL_UNCERTAINTY_ASSIGNED_CONTEXT ( ( #246 ) ) GLOBAL_UNIT_ASSIGNED_CONTEXT ( ( #133, #247, #337 ) ) REPRESENTATION_CONTEXT ( 'NONE', 'WORKASPACE' ) );
#368 = AXIS2_PLACEMENT_3D ( 'NONE', #201, #179, #66 ) ;
#369 = ORIENTED_EDGE ( 'NONE', *, *, #170, .T. ) ;
#370 = EDGE_CURVE ( 'NONE', #142, #359, #109, .T. ) ;
#371 = ORIENTED_EDGE ( 'NONE', *, *, #193, .F. ) ;
#372 = CIRCLE ( 'NONE', #4, 2.485628142878610000 ) ;
#373 = AXIS2_PLACEMENT_3D ( 'NONE', #240, #44, #132 ) ;
#374 = EDGE_LOOP ( 'NONE', ( #72, #217 ) ) ;
#375 = CARTESIAN_POINT ( 'NONE',  ( 0.0000000000000000000, 0.0000000000000000000, 5.000000000000002700 ) ) ;
#376 = VERTEX_POINT ( 'NONE', #40 ) ;
ENDSEC;
END-ISO-10303-21;
