ISO-10303-21;
HEADER;
FILE_DESCRIPTION (( 'STEP AP214' ),
    '1' );
FILE_NAME ('UEBK-30999_2017_08_28.STEP',
    '2017-08-28T10:01:05',
    ( '' ),
    ( '' ),
    'SwSTEP 2.0',
    'SolidWorks 2017',
    '' );
FILE_SCHEMA (( 'AUTOMOTIVE_DESIGN' ));
ENDSEC;

DATA;
#1 = CARTESIAN_POINT ( 'NONE',  ( 0.0000000000000000000, 0.0000000000000000000, 15.00000000000000000 ) ) ;
#2 = DIRECTION ( 'NONE',  ( -0.0000000000000000000, -0.0000000000000000000, 1.000000000000000000 ) ) ;
#3 = CARTESIAN_POINT ( 'NONE',  ( 0.0000000000000000000, 0.0000000000000000000, 15.00000000000000000 ) ) ;
#4 = CIRCLE ( 'NONE', #59, 2.004049279377356100 ) ;
#5 = PLANE ( 'NONE',  #232 ) ;
#6 = CIRCLE ( 'NONE', #344, 2.999999999999998700 ) ;
#7 = CARTESIAN_POINT ( 'NONE',  ( 0.0000000000000000000, 0.0000000000000000000, 5.000000000000000900 ) ) ;
#8 = DIRECTION ( 'NONE',  ( 1.000000000000000000, 0.0000000000000000000, 0.0000000000000000000 ) ) ;
#9 = CARTESIAN_POINT ( 'NONE',  ( 0.0000000000000000000, 0.0000000000000000000, 4.369951887038981300 ) ) ;
#10 = ORIENTED_EDGE ( 'NONE', *, *, #61, .F. ) ;
#11 = EDGE_CURVE ( 'NONE', #15, #105, #6, .T. ) ;
#12 = VERTEX_POINT ( 'NONE', #199 ) ;
#13 = LINE ( 'NONE', #302, #159 ) ;
#14 = MECHANICAL_DESIGN_GEOMETRIC_PRESENTATION_REPRESENTATION (  '', ( #43 ), #212 ) ;
#15 = VERTEX_POINT ( 'NONE', #131 ) ;
#16 = EDGE_CURVE ( 'NONE', #48, #12, #211, .T. ) ;
#17 = DIRECTION ( 'NONE',  ( -0.0000000000000000000, -0.0000000000000000000, 1.000000000000000000 ) ) ;
#18 = DIRECTION ( 'NONE',  ( 1.000000000000000000, 0.0000000000000000000, 0.0000000000000000000 ) ) ;
#19 = CARTESIAN_POINT ( 'NONE',  ( -2.999999999999999100, 0.0000000000000000000, 6.000000000000000900 ) ) ;
#20 = DIRECTION ( 'NONE',  ( 1.000000000000000000, 0.0000000000000000000, 0.0000000000000000000 ) ) ;
#21 = APPLICATION_CONTEXT ( 'automotive_design' ) ;
#22 = CARTESIAN_POINT ( 'NONE',  ( 0.0000000000000000000, 0.0000000000000000000, 15.00000000000000000 ) ) ;
#23 = FACE_OUTER_BOUND ( 'NONE', #327, .T. ) ;
#24 = EDGE_LOOP ( 'NONE', ( #52, #274 ) ) ;
#25 = PRODUCT_DEFINITION_FORMATION_WITH_SPECIFIED_SOURCE ( 'ANY', '', #121, .NOT_KNOWN. ) ;
#26 = ORIENTED_EDGE ( 'NONE', *, *, #227, .F. ) ;
#27 = CARTESIAN_POINT ( 'NONE',  ( 0.0000000000000000000, 0.0000000000000000000, 6.000000000000001800 ) ) ;
#28 = DIRECTION ( 'NONE',  ( 0.0000000000000000000, 0.0000000000000000000, 1.000000000000000000 ) ) ;
#29 = PRESENTATION_STYLE_ASSIGNMENT (( #262 ) ) ;
#30 = CARTESIAN_POINT ( 'NONE',  ( -2.084370374403317500, 0.0000000000000000000, 15.00000000000000000 ) ) ;
#31 = DIRECTION ( 'NONE',  ( 1.000000000000000000, 0.0000000000000000000, 0.0000000000000000000 ) ) ;
#32 = DIRECTION ( 'NONE',  ( -0.0000000000000000000, -0.0000000000000000000, 1.000000000000000000 ) ) ;
#33 = CARTESIAN_POINT ( 'NONE',  ( -0.05264286659035436600, 6.446891806781861800E-018, 4.369951887038981300 ) ) ;
#34 = FACE_OUTER_BOUND ( 'NONE', #193, .T. ) ;
#35 = ORIENTED_EDGE ( 'NONE', *, *, #300, .T. ) ;
#36 = CARTESIAN_POINT ( 'NONE',  ( 0.0000000000000000000, 0.0000000000000000000, 5.000000000000000900 ) ) ;
#37 = DIRECTION ( 'NONE',  ( -0.0000000000000000000, -0.0000000000000000000, 1.000000000000000000 ) ) ;
#38 = FACE_OUTER_BOUND ( 'NONE', #71, .T. ) ;
#39 = DIRECTION ( 'NONE',  ( -0.0000000000000000000, -0.0000000000000000000, 1.000000000000000000 ) ) ;
#40 = DIRECTION ( 'NONE',  ( -0.0000000000000000000, -0.0000000000000000000, 1.000000000000000000 ) ) ;
#41 = DIRECTION ( 'NONE',  ( 1.000000000000000000, 0.0000000000000000000, 0.0000000000000000000 ) ) ;
#42 = DIRECTION ( 'NONE',  ( -0.0000000000000000000, -0.0000000000000000000, 1.000000000000000000 ) ) ;
#43 = STYLED_ITEM ( 'NONE', ( #74 ), #356 ) ;
#44 = CIRCLE ( 'NONE', #141, 2.999999999999999100 ) ;
#45 = ORIENTED_EDGE ( 'NONE', *, *, #365, .T. ) ;
#46 = EDGE_CURVE ( 'NONE', #250, #102, #313, .T. ) ;
#47 = CIRCLE ( 'NONE', #161, 2.004049279377356100 ) ;
#48 = VERTEX_POINT ( 'NONE', #94 ) ;
#49 = ORIENTED_EDGE ( 'NONE', *, *, #203, .T. ) ;
#50 = PRODUCT_DEFINITION ( 'UNKNOWN', '', #25, #109 ) ;
#51 = ORIENTED_EDGE ( 'NONE', *, *, #330, .T. ) ;
#52 = ORIENTED_EDGE ( 'NONE', *, *, #350, .T. ) ;
#53 = FACE_OUTER_BOUND ( 'NONE', #333, .T. ) ;
#54 = ORIENTED_EDGE ( 'NONE', *, *, #300, .F. ) ;
#55 = AXIS2_PLACEMENT_3D ( 'NONE', #190, #186, #134 ) ;
#56 = CARTESIAN_POINT ( 'NONE',  ( -2.499133232195198200, 0.0000000000000000000, 6.000000000000001800 ) ) ;
#57 = DIRECTION ( 'NONE',  ( -0.001570357196528898300, 0.0000000000000000000, -0.9999987669883775300 ) ) ;
#58 = CIRCLE ( 'NONE', #230, 2.004049279377356100 ) ;
#59 = AXIS2_PLACEMENT_3D ( 'NONE', #297, #147, #366 ) ;
#60 = ADVANCED_FACE ( 'NONE', ( #38 ), #238, .T. ) ;
#61 = EDGE_CURVE ( 'NONE', #105, #250, #362, .T. ) ;
#62 = CARTESIAN_POINT ( 'NONE',  ( -2.999999999999999100, 3.673940397442058900E-016, 15.00000000000000000 ) ) ;
#63 = DIRECTION ( 'NONE',  ( -1.000000000000000000, 1.224646799147353000E-016, 0.0000000000000000000 ) ) ;
#64 = ORIENTED_EDGE ( 'NONE', *, *, #123, .T. ) ;
#65 = CARTESIAN_POINT ( 'NONE',  ( 0.0000000000000000000, 0.0000000000000000000, 14.60000049320453500 ) ) ;
#66 = DIRECTION ( 'NONE',  ( -0.0000000000000000000, -0.0000000000000000000, 1.000000000000000000 ) ) ;
#67 = CARTESIAN_POINT ( 'NONE',  ( 0.05264286659035436600, 0.0000000000000000000, 4.369951887038981300 ) ) ;
#68 = FACE_OUTER_BOUND ( 'NONE', #167, .T. ) ;
#69 = DIRECTION ( 'NONE',  ( 0.0000000000000000000, 0.0000000000000000000, -1.000000000000000000 ) ) ;
#70 = ORIENTED_EDGE ( 'NONE', *, *, #261, .T. ) ;
#71 = EDGE_LOOP ( 'NONE', ( #264, #275, #242, #233 ) ) ;
#72 = VERTEX_POINT ( 'NONE', #125 ) ;
#73 = AXIS2_PLACEMENT_3D ( 'NONE', #305, #69, #101 ) ;
#74 = PRESENTATION_STYLE_ASSIGNMENT (( #213 ) ) ;
#75 = EDGE_LOOP ( 'NONE', ( #299, #310 ) ) ;
#76 = EDGE_CURVE ( 'NONE', #198, #363, #265, .T. ) ;
#77 = ORIENTED_EDGE ( 'NONE', *, *, #246, .F. ) ;
#78 =( LENGTH_UNIT ( ) NAMED_UNIT ( * ) SI_UNIT ( .MILLI., .METRE. ) );
#79 = SURFACE_SIDE_STYLE ('',( #296 ) ) ;
#80 = PRODUCT_RELATED_PRODUCT_CATEGORY ( 'part', '', ( #121 ) ) ;
#81 = CYLINDRICAL_SURFACE ( 'NONE', #55, 2.999999999999999100 ) ;
#82 = ORIENTED_EDGE ( 'NONE', *, *, #139, .F. ) ;
#83 = DIRECTION ( 'NONE',  ( 1.000000000000000000, 0.0000000000000000000, 0.0000000000000000000 ) ) ;
#84 = ORIENTED_EDGE ( 'NONE', *, *, #203, .F. ) ;
#85 = UNCERTAINTY_MEASURE_WITH_UNIT (LENGTH_MEASURE( 1.000000000000000100E-005 ), #149, 'distance_accuracy_value', 'NONE');
#86 =( NAMED_UNIT ( * ) SI_UNIT ( $, .STERADIAN. ) SOLID_ANGLE_UNIT ( ) );
#87 = ORIENTED_EDGE ( 'NONE', *, *, #103, .T. ) ;
#88 = DIRECTION ( 'NONE',  ( 0.0000000000000000000, 0.0000000000000000000, -1.000000000000000000 ) ) ;
#89 = DIRECTION ( 'NONE',  ( -0.0000000000000000000, -0.0000000000000000000, 1.000000000000000000 ) ) ;
#90 = EDGE_CURVE ( 'NONE', #12, #48, #252, .T. ) ;
#91 = CARTESIAN_POINT ( 'NONE',  ( -2.004049279377356100, 2.454252535323039200E-016, 15.00000000000000000 ) ) ;
#92 = DIRECTION ( 'NONE',  ( 1.000000000000000000, 0.0000000000000000000, 0.0000000000000000000 ) ) ;
#93 = SURFACE_STYLE_FILL_AREA ( #370 ) ;
#94 = CARTESIAN_POINT ( 'NONE',  ( 2.499133232195198200, 3.060555513450628700E-016, 6.000000000000001800 ) ) ;
#95 = CARTESIAN_POINT ( 'NONE',  ( 0.0000000000000000000, 0.0000000000000000000, 15.00000000000000000 ) ) ;
#96 = VERTEX_POINT ( 'NONE', #99 ) ;
#97 = DIRECTION ( 'NONE',  ( 1.000000000000000000, 0.0000000000000000000, 0.0000000000000000000 ) ) ;
#98 = ORIENTED_EDGE ( 'NONE', *, *, #143, .F. ) ;
#99 = CARTESIAN_POINT ( 'NONE',  ( -2.004049279377356100, 2.454252535323039200E-016, 5.000000000000000900 ) ) ;
#100 = CARTESIAN_POINT ( 'NONE',  ( 0.0000000000000000000, 0.0000000000000000000, 5.000000000000000900 ) ) ;
#101 = DIRECTION ( 'NONE',  ( -1.000000000000000000, 0.0000000000000000000, -0.0000000000000000000 ) ) ;
#102 = VERTEX_POINT ( 'NONE', #248 ) ;
#103 = EDGE_CURVE ( 'NONE', #72, #363, #13, .T. ) ;
#104 = VECTOR ( 'NONE', #283, 1000.000000000000000 ) ;
#105 = VERTEX_POINT ( 'NONE', #155 ) ;
#106 = CONICAL_SURFACE ( 'NONE', #303, 2.084370374403317500, 0.7869685212394006400 ) ;
#107 = PRESENTATION_LAYER_ASSIGNMENT (  '', '', ( #43 ) ) ;
#108 = ORIENTED_EDGE ( 'NONE', *, *, #365, .F. ) ;
#109 = PRODUCT_DEFINITION_CONTEXT ( 'detailed design', #21, 'design' ) ;
#110 = ORIENTED_EDGE ( 'NONE', *, *, #350, .F. ) ;
#111 = DIRECTION ( 'NONE',  ( 0.0000000000000000000, 0.0000000000000000000, -1.000000000000000000 ) ) ;
#112 = CARTESIAN_POINT ( 'NONE',  ( 2.485628142878610000, 3.052286031248749000E-016, 14.60000049320453500 ) ) ;
#113 = APPLICATION_PROTOCOL_DEFINITION ( 'draft international standard', 'automotive_design', 1998, #21 ) ;
#114 = VECTOR ( 'NONE', #42, 1000.000000000000000 ) ;
#115 = AXIS2_PLACEMENT_3D ( 'NONE', #329, #280, #8 ) ;
#116 = ORIENTED_EDGE ( 'NONE', *, *, #123, .F. ) ;
#117 = ORIENTED_EDGE ( 'NONE', *, *, #284, .T. ) ;
#118 = ADVANCED_BREP_SHAPE_REPRESENTATION ( 'UEBK-30999_2017_08_28', ( #356, #119 ), #308 ) ;
#119 = AXIS2_PLACEMENT_3D ( 'NONE', #235, #28, #337 ) ;
#120 = CONICAL_SURFACE ( 'NONE', #293, 2.084370374403317500, 0.7869685212394006400 ) ;
#121 = PRODUCT ( 'UEBK-30999_2017_08_28', 'UEBK-30999_2017_08_28', '', ( #208 ) ) ;
#122 = ADVANCED_FACE ( 'NONE', ( #151 ), #106, .T. ) ;
#123 = EDGE_CURVE ( 'NONE', #72, #210, #166, .T. ) ;
#124 = CARTESIAN_POINT ( 'NONE',  ( 0.0000000000000000000, 0.0000000000000000000, 0.0000000000000000000 ) ) ;
#125 = CARTESIAN_POINT ( 'NONE',  ( 2.084370374403317500, 2.798317028148731800E-016, 15.00000000000000000 ) ) ;
#126 = TOROIDAL_SURFACE ( 'NONE', #240, 0.05264286659035436600, 4.370268958135002700 ) ;
#127 = EDGE_LOOP ( 'NONE', ( #10, #339, #228, #290 ) ) ;
#128 = CARTESIAN_POINT ( 'NONE',  ( 0.0000000000000000000, 0.0000000000000000000, 6.000000000000001800 ) ) ;
#129 = DIRECTION ( 'NONE',  ( -0.7082163195382188400, 0.0000000000000000000, -0.7059954990931171000 ) ) ;
#130 = LINE ( 'NONE', #91, #187 ) ;
#131 = CARTESIAN_POINT ( 'NONE',  ( 2.999999999999998700, 0.0000000000000000000, 5.000000000000000900 ) ) ;
#132 = DIRECTION ( 'NONE',  ( 0.0000000000000000000, -1.000000000000000000, 0.0000000000000000000 ) ) ;
#133 = STYLED_ITEM ( 'NONE', ( #29 ), #118 ) ;
#134 = DIRECTION ( 'NONE',  ( 1.000000000000000000, 0.0000000000000000000, 0.0000000000000000000 ) ) ;
#135 = COLOUR_RGB ( '',0.8274509803921568100, 0.6666666666666666300, 0.1294117647058823400 ) ;
#136 = DIRECTION ( 'NONE',  ( -0.0000000000000000000, -0.0000000000000000000, 1.000000000000000000 ) ) ;
#137 = CIRCLE ( 'NONE', #316, 2.084370374403317500 ) ;
#138 = VERTEX_POINT ( 'NONE', #354 ) ;
#139 = EDGE_CURVE ( 'NONE', #15, #102, #174, .T. ) ;
#140 = DIRECTION ( 'NONE',  ( -1.000000000000000000, 0.0000000000000000000, -0.0000000000000000000 ) ) ;
#141 = AXIS2_PLACEMENT_3D ( 'NONE', #27, #294, #343 ) ;
#142 = EDGE_CURVE ( 'NONE', #105, #15, #341, .T. ) ;
#143 = EDGE_CURVE ( 'NONE', #317, #96, #130, .T. ) ;
#144 = VERTEX_POINT ( 'NONE', #124 ) ;
#145 =( NAMED_UNIT ( * ) SI_UNIT ( $, .STERADIAN. ) SOLID_ANGLE_UNIT ( ) );
#146 = CARTESIAN_POINT ( 'NONE',  ( 0.0000000000000000000, 0.0000000000000000000, 15.00000000000000000 ) ) ;
#147 = DIRECTION ( 'NONE',  ( -0.0000000000000000000, -0.0000000000000000000, 1.000000000000000000 ) ) ;
#148 = DIRECTION ( 'NONE',  ( 0.0000000000000000000, 0.0000000000000000000, -1.000000000000000000 ) ) ;
#149 =( LENGTH_UNIT ( ) NAMED_UNIT ( * ) SI_UNIT ( .MILLI., .METRE. ) );
#150 =( NAMED_UNIT ( * ) PLANE_ANGLE_UNIT ( ) SI_UNIT ( $, .RADIAN. ) );
#151 = FACE_OUTER_BOUND ( 'NONE', #231, .T. ) ;
#152 = APPLICATION_CONTEXT ( 'automotive_design' ) ;
#153 = EDGE_LOOP ( 'NONE', ( #255, #117, #165, #201 ) ) ;
#154 = DIRECTION ( 'NONE',  ( 0.0000000000000000000, 0.0000000000000000000, -1.000000000000000000 ) ) ;
#155 = CARTESIAN_POINT ( 'NONE',  ( -2.999999999999998700, 3.673940397442058400E-016, 5.000000000000000900 ) ) ;
#156 = UNCERTAINTY_MEASURE_WITH_UNIT (LENGTH_MEASURE( 1.000000000000000100E-005 ), #345, 'distance_accuracy_value', 'NONE');
#157 = CARTESIAN_POINT ( 'NONE',  ( 2.499133232195198200, 3.060555513450628700E-016, 6.000000000000001800 ) ) ;
#158 = CARTESIAN_POINT ( 'NONE',  ( -2.004049279377356100, 0.0000000000000000000, 5.000000000000000900 ) ) ;
#159 = VECTOR ( 'NONE', #304, 1000.000000000000000 ) ;
#160 = DIRECTION ( 'NONE',  ( 0.0000000000000000000, 0.0000000000000000000, -1.000000000000000000 ) ) ;
#161 = AXIS2_PLACEMENT_3D ( 'NONE', #266, #292, #239 ) ;
#162 = ORIENTED_EDGE ( 'NONE', *, *, #246, .T. ) ;
#163 = EDGE_CURVE ( 'NONE', #363, #48, #229, .T. ) ;
#164 = AXIS2_PLACEMENT_3D ( 'NONE', #36, #39, #251 ) ;
#165 = ORIENTED_EDGE ( 'NONE', *, *, #374, .T. ) ;
#166 = CIRCLE ( 'NONE', #285, 2.084370374403317500 ) ;
#167 = EDGE_LOOP ( 'NONE', ( #301, #324, #108 ) ) ;
#168 = DIRECTION ( 'NONE',  ( -1.000000000000000000, 0.0000000000000000000, 0.0000000000000000000 ) ) ;
#169 = FILL_AREA_STYLE ('',( #369 ) ) ;
#170 = CARTESIAN_POINT ( 'NONE',  ( 0.0000000000000000000, 0.0000000000000000000, 4.369951887038981300 ) ) ;
#171 = EDGE_CURVE ( 'NONE', #210, #72, #137, .T. ) ;
#172 = EDGE_LOOP ( 'NONE', ( #98, #314, #162, #260 ) ) ;
#173 =( NAMED_UNIT ( * ) PLANE_ANGLE_UNIT ( ) SI_UNIT ( $, .RADIAN. ) );
#174 = LINE ( 'NONE', #219, #288 ) ;
#175 = DIRECTION ( 'NONE',  ( -0.0000000000000000000, -0.0000000000000000000, 1.000000000000000000 ) ) ;
#176 = DIRECTION ( 'NONE',  ( -1.000000000000000000, 0.0000000000000000000, 0.0000000000000000000 ) ) ;
#177 = APPLICATION_PROTOCOL_DEFINITION ( 'draft international standard', 'automotive_design', 1998, #152 ) ;
#178 = PRESENTATION_LAYER_ASSIGNMENT (  '', '', ( #133 ) ) ;
#179 = ADVANCED_FACE ( 'NONE', ( #272 ), #289, .T. ) ;
#180 = CARTESIAN_POINT ( 'NONE',  ( -2.084370374403317500, 0.0000000000000000000, 15.00000000000000000 ) ) ;
#181 = DIRECTION ( 'NONE',  ( -0.0000000000000000000, -0.0000000000000000000, 1.000000000000000000 ) ) ;
#182 = AXIS2_PLACEMENT_3D ( 'NONE', #33, #322, #63 ) ;
#183 = DIRECTION ( 'NONE',  ( -0.0000000000000000000, -0.0000000000000000000, 1.000000000000000000 ) ) ;
#184 = CARTESIAN_POINT ( 'NONE',  ( 0.0000000000000000000, 0.0000000000000000000, 6.000000000000001800 ) ) ;
#185 = ORIENTED_EDGE ( 'NONE', *, *, #103, .F. ) ;
#186 = DIRECTION ( 'NONE',  ( -0.0000000000000000000, -0.0000000000000000000, 1.000000000000000000 ) ) ;
#187 = VECTOR ( 'NONE', #66, 1000.000000000000000 ) ;
#188 = DIRECTION ( 'NONE',  ( 1.000000000000000000, 0.0000000000000000000, 0.0000000000000000000 ) ) ;
#189 = MECHANICAL_DESIGN_GEOMETRIC_PRESENTATION_REPRESENTATION (  '', ( #133 ), #226 ) ;
#190 = CARTESIAN_POINT ( 'NONE',  ( 0.0000000000000000000, 0.0000000000000000000, 15.00000000000000000 ) ) ;
#191 = DIRECTION ( 'NONE',  ( 1.000000000000000000, 0.0000000000000000000, 0.0000000000000000000 ) ) ;
#192 = COLOUR_RGB ( '',0.8274509803921568100, 0.6666666666666666300, 0.1294117647058823400 ) ;
#193 = EDGE_LOOP ( 'NONE', ( #336, #194 ) ) ;
#194 = ORIENTED_EDGE ( 'NONE', *, *, #142, .F. ) ;
#195 = CYLINDRICAL_SURFACE ( 'NONE', #367, 2.004049279377356100 ) ;
#196 = ORIENTED_EDGE ( 'NONE', *, *, #76, .F. ) ;
#197 = AXIS2_PLACEMENT_3D ( 'NONE', #270, #273, #325 ) ;
#198 = VERTEX_POINT ( 'NONE', #207 ) ;
#199 = CARTESIAN_POINT ( 'NONE',  ( -2.499133232195198200, 0.0000000000000000000, 6.000000000000001800 ) ) ;
#200 = TOROIDAL_SURFACE ( 'NONE', #276, 0.05264286659035436600, 4.370268958135002700 ) ;
#201 = ORIENTED_EDGE ( 'NONE', *, *, #90, .T. ) ;
#202 = AXIS2_PLACEMENT_3D ( 'NONE', #319, #267, #315 ) ;
#203 = EDGE_CURVE ( 'NONE', #210, #198, #286, .T. ) ;
#204 = PLANE ( 'NONE',  #206 ) ;
#205 =( NAMED_UNIT ( * ) PLANE_ANGLE_UNIT ( ) SI_UNIT ( $, .RADIAN. ) );
#206 = AXIS2_PLACEMENT_3D ( 'NONE', #19, #111, #140 ) ;
#207 = CARTESIAN_POINT ( 'NONE',  ( -2.485628142878610000, 0.0000000000000000000, 14.60000049320453500 ) ) ;
#208 = PRODUCT_CONTEXT ( 'NONE', #152, 'mechanical' ) ;
#209 = FACE_BOUND ( 'NONE', #218, .T. ) ;
#210 = VERTEX_POINT ( 'NONE', #30 ) ;
#211 = CIRCLE ( 'NONE', #257, 2.499133232195198200 ) ;
#212 =( GEOMETRIC_REPRESENTATION_CONTEXT ( 3 ) GLOBAL_UNCERTAINTY_ASSIGNED_CONTEXT ( ( #156 ) ) GLOBAL_UNIT_ASSIGNED_CONTEXT ( ( #345, #150, #86 ) ) REPRESENTATION_CONTEXT ( 'NONE', 'WORKASPACE' ) );
#213 = SURFACE_STYLE_USAGE ( .BOTH. , #234 ) ;
#214 = ADVANCED_FACE ( 'NONE', ( #23 ), #120, .T. ) ;
#215 = ADVANCED_FACE ( 'NONE', ( #332 ), #195, .T. ) ;
#216 = CARTESIAN_POINT ( 'NONE',  ( 0.0000000000000000000, 0.0000000000000000000, 6.000000000000001800 ) ) ;
#217 = CONICAL_SURFACE ( 'NONE', #202, 2.499133232195198200, 0.001570357841952108200 ) ;
#218 = EDGE_LOOP ( 'NONE', ( #35, #51 ) ) ;
#219 = CARTESIAN_POINT ( 'NONE',  ( 2.999999999999999100, 0.0000000000000000000, 15.00000000000000000 ) ) ;
#220 = SHAPE_DEFINITION_REPRESENTATION ( #342, #118 ) ;
#221 = CARTESIAN_POINT ( 'NONE',  ( 0.0000000000000000000, 0.0000000000000000000, 6.000000000000001800 ) ) ;
#222 = AXIS2_PLACEMENT_3D ( 'NONE', #128, #154, #245 ) ;
#223 = CARTESIAN_POINT ( 'NONE',  ( -2.004049279377356600, 2.454252535323039700E-016, 0.4595473327029253600 ) ) ;
#224 = DIRECTION ( 'NONE',  ( -1.000000000000000000, 0.0000000000000000000, 0.0000000000000000000 ) ) ;
#225 = FACE_OUTER_BOUND ( 'NONE', #361, .T. ) ;
#226 =( GEOMETRIC_REPRESENTATION_CONTEXT ( 3 ) GLOBAL_UNCERTAINTY_ASSIGNED_CONTEXT ( ( #295 ) ) GLOBAL_UNIT_ASSIGNED_CONTEXT ( ( #78, #205, #145 ) ) REPRESENTATION_CONTEXT ( 'NONE', 'WORKASPACE' ) );
#227 = EDGE_CURVE ( 'NONE', #144, #317, #371, .T. ) ;
#228 = ORIENTED_EDGE ( 'NONE', *, *, #139, .T. ) ;
#229 = LINE ( 'NONE', #157, #104 ) ;
#230 = AXIS2_PLACEMENT_3D ( 'NONE', #100, #307, #328 ) ;
#231 = EDGE_LOOP ( 'NONE', ( #116, #87, #196, #84 ) ) ;
#232 = AXIS2_PLACEMENT_3D ( 'NONE', #158, #357, #18 ) ;
#233 = ORIENTED_EDGE ( 'NONE', *, *, #374, .F. ) ;
#234 = SURFACE_SIDE_STYLE ('',( #93 ) ) ;
#235 = CARTESIAN_POINT ( 'NONE',  ( 0.0000000000000000000, 0.0000000000000000000, 0.0000000000000000000 ) ) ;
#236 = AXIS2_PLACEMENT_3D ( 'NONE', #216, #253, #31 ) ;
#237 = LINE ( 'NONE', #355, #114 ) ;
#238 = CONICAL_SURFACE ( 'NONE', #222, 2.499133232195198200, 0.001570357841952108200 ) ;
#239 = DIRECTION ( 'NONE',  ( 1.000000000000000000, 0.0000000000000000000, 0.0000000000000000000 ) ) ;
#240 = AXIS2_PLACEMENT_3D ( 'NONE', #170, #175, #83 ) ;
#241 = ADVANCED_FACE ( 'NONE', ( #53 ), #323, .T. ) ;
#242 = ORIENTED_EDGE ( 'NONE', *, *, #16, .T. ) ;
#243 = ADVANCED_FACE ( 'NONE', ( #256, #346 ), #204, .F. ) ;
#244 = EDGE_CURVE ( 'NONE', #317, #321, #351, .T. ) ;
#245 = DIRECTION ( 'NONE',  ( -1.000000000000000000, 0.0000000000000000000, 0.0000000000000000000 ) ) ;
#246 = EDGE_CURVE ( 'NONE', #321, #138, #237, .T. ) ;
#247 = DIRECTION ( 'NONE',  ( -1.000000000000000000, 0.0000000000000000000, 0.0000000000000000000 ) ) ;
#248 = CARTESIAN_POINT ( 'NONE',  ( 2.999999999999999100, 0.0000000000000000000, 6.000000000000001800 ) ) ;
#249 = LINE ( 'NONE', #56, #312 ) ;
#250 = VERTEX_POINT ( 'NONE', #254 ) ;
#251 = DIRECTION ( 'NONE',  ( 1.000000000000000000, 0.0000000000000000000, 0.0000000000000000000 ) ) ;
#252 = CIRCLE ( 'NONE', #263, 2.499133232195198200 ) ;
#253 = DIRECTION ( 'NONE',  ( -0.0000000000000000000, -0.0000000000000000000, 1.000000000000000000 ) ) ;
#254 = CARTESIAN_POINT ( 'NONE',  ( -2.999999999999999100, 3.673940397442058900E-016, 6.000000000000001800 ) ) ;
#255 = ORIENTED_EDGE ( 'NONE', *, *, #163, .F. ) ;
#256 = FACE_BOUND ( 'NONE', #75, .T. ) ;
#257 = AXIS2_PLACEMENT_3D ( 'NONE', #184, #2, #188 ) ;
#258 = ORIENTED_EDGE ( 'NONE', *, *, #143, .T. ) ;
#259 = EDGE_LOOP ( 'NONE', ( #45, #258, #54, #77 ) ) ;
#260 = ORIENTED_EDGE ( 'NONE', *, *, #330, .F. ) ;
#261 = EDGE_CURVE ( 'NONE', #144, #321, #358, .T. ) ;
#262 = SURFACE_STYLE_USAGE ( .BOTH. , #79 ) ;
#263 = AXIS2_PLACEMENT_3D ( 'NONE', #221, #183, #41 ) ;
#264 = ORIENTED_EDGE ( 'NONE', *, *, #76, .T. ) ;
#265 = CIRCLE ( 'NONE', #197, 2.485628142878610000 ) ;
#266 = CARTESIAN_POINT ( 'NONE',  ( 0.0000000000000000000, 0.0000000000000000000, 5.000000000000000900 ) ) ;
#267 = DIRECTION ( 'NONE',  ( 0.0000000000000000000, 0.0000000000000000000, -1.000000000000000000 ) ) ;
#268 = ADVANCED_FACE ( 'NONE', ( #338 ), #81, .T. ) ;
#269 = ADVANCED_FACE ( 'NONE', ( #225 ), #359, .F. ) ;
#270 = CARTESIAN_POINT ( 'NONE',  ( 0.0000000000000000000, 0.0000000000000000000, 14.60000049320453500 ) ) ;
#271 = ADVANCED_FACE ( 'NONE', ( #68 ), #200, .T. ) ;
#272 = FACE_OUTER_BOUND ( 'NONE', #172, .T. ) ;
#273 = DIRECTION ( 'NONE',  ( 0.0000000000000000000, 0.0000000000000000000, -1.000000000000000000 ) ) ;
#274 = ORIENTED_EDGE ( 'NONE', *, *, #46, .T. ) ;
#275 = ORIENTED_EDGE ( 'NONE', *, *, #163, .T. ) ;
#276 = AXIS2_PLACEMENT_3D ( 'NONE', #9, #136, #191 ) ;
#277 = DIRECTION ( 'NONE',  ( 0.0000000000000000000, 0.0000000000000000000, -1.000000000000000000 ) ) ;
#278 = DIRECTION ( 'NONE',  ( 1.000000000000000000, 0.0000000000000000000, 0.0000000000000000000 ) ) ;
#279 = CARTESIAN_POINT ( 'NONE',  ( 2.004049279377356600, 0.0000000000000000000, 0.4595473327029253600 ) ) ;
#280 = DIRECTION ( 'NONE',  ( -0.0000000000000000000, -0.0000000000000000000, 1.000000000000000000 ) ) ;
#281 = FACE_OUTER_BOUND ( 'NONE', #153, .T. ) ;
#282 = ORIENTED_EDGE ( 'NONE', *, *, #284, .F. ) ;
#283 = DIRECTION ( 'NONE',  ( 0.001570357196528898300, 1.923132914247126400E-019, -0.9999987669883775300 ) ) ;
#284 = EDGE_CURVE ( 'NONE', #363, #198, #360, .T. ) ;
#285 = AXIS2_PLACEMENT_3D ( 'NONE', #349, #32, #247 ) ;
#286 = LINE ( 'NONE', #180, #335 ) ;
#287 = ORIENTED_EDGE ( 'NONE', *, *, #171, .T. ) ;
#288 = VECTOR ( 'NONE', #298, 1000.000000000000000 ) ;
#289 = CYLINDRICAL_SURFACE ( 'NONE', #331, 2.004049279377356100 ) ;
#290 = ORIENTED_EDGE ( 'NONE', *, *, #46, .F. ) ;
#291 =( NAMED_UNIT ( * ) SI_UNIT ( $, .STERADIAN. ) SOLID_ANGLE_UNIT ( ) );
#292 = DIRECTION ( 'NONE',  ( -0.0000000000000000000, -0.0000000000000000000, 1.000000000000000000 ) ) ;
#293 = AXIS2_PLACEMENT_3D ( 'NONE', #22, #148, #176 ) ;
#294 = DIRECTION ( 'NONE',  ( -0.0000000000000000000, -0.0000000000000000000, 1.000000000000000000 ) ) ;
#295 = UNCERTAINTY_MEASURE_WITH_UNIT (LENGTH_MEASURE( 1.000000000000000100E-005 ), #78, 'distance_accuracy_value', 'NONE');
#296 = SURFACE_STYLE_FILL_AREA ( #169 ) ;
#297 = CARTESIAN_POINT ( 'NONE',  ( 0.0000000000000000000, 0.0000000000000000000, 0.4595473327029253600 ) ) ;
#298 = DIRECTION ( 'NONE',  ( -0.0000000000000000000, -0.0000000000000000000, 1.000000000000000000 ) ) ;
#299 = ORIENTED_EDGE ( 'NONE', *, *, #90, .F. ) ;
#300 = EDGE_CURVE ( 'NONE', #138, #96, #58, .T. ) ;
#301 = ORIENTED_EDGE ( 'NONE', *, *, #261, .F. ) ;
#302 = CARTESIAN_POINT ( 'NONE',  ( 2.084370374403317500, 2.552617507250593300E-016, 15.00000000000000000 ) ) ;
#303 = AXIS2_PLACEMENT_3D ( 'NONE', #1, #88, #224 ) ;
#304 = DIRECTION ( 'NONE',  ( 0.7082163195382188400, 8.673148488263987900E-017, -0.7059954990931171000 ) ) ;
#305 = CARTESIAN_POINT ( 'NONE',  ( -2.484999999999998500, 0.0000000000000000000, 15.00000000000000000 ) ) ;
#306 = FACE_OUTER_BOUND ( 'NONE', #318, .T. ) ;
#307 = DIRECTION ( 'NONE',  ( -0.0000000000000000000, -0.0000000000000000000, 1.000000000000000000 ) ) ;
#308 =( GEOMETRIC_REPRESENTATION_CONTEXT ( 3 ) GLOBAL_UNCERTAINTY_ASSIGNED_CONTEXT ( ( #85 ) ) GLOBAL_UNIT_ASSIGNED_CONTEXT ( ( #149, #173, #291 ) ) REPRESENTATION_CONTEXT ( 'NONE', 'WORKASPACE' ) );
#309 = ORIENTED_EDGE ( 'NONE', *, *, #61, .T. ) ;
#310 = ORIENTED_EDGE ( 'NONE', *, *, #16, .F. ) ;
#311 = AXIS2_PLACEMENT_3D ( 'NONE', #67, #132, #160 ) ;
#312 = VECTOR ( 'NONE', #57, 1000.000000000000000 ) ;
#313 = CIRCLE ( 'NONE', #236, 2.999999999999999100 ) ;
#314 = ORIENTED_EDGE ( 'NONE', *, *, #244, .T. ) ;
#315 = DIRECTION ( 'NONE',  ( -1.000000000000000000, 0.0000000000000000000, 0.0000000000000000000 ) ) ;
#316 = AXIS2_PLACEMENT_3D ( 'NONE', #146, #17, #168 ) ;
#317 = VERTEX_POINT ( 'NONE', #223 ) ;
#318 = EDGE_LOOP ( 'NONE', ( #26, #70, #373 ) ) ;
#319 = CARTESIAN_POINT ( 'NONE',  ( 0.0000000000000000000, 0.0000000000000000000, 6.000000000000001800 ) ) ;
#320 = ADVANCED_FACE ( 'NONE', ( #34, #209 ), #5, .F. ) ;
#321 = VERTEX_POINT ( 'NONE', #279 ) ;
#322 = DIRECTION ( 'NONE',  ( 1.224646799147353200E-016, 1.000000000000000000, 0.0000000000000000000 ) ) ;
#323 = CYLINDRICAL_SURFACE ( 'NONE', #352, 2.999999999999999100 ) ;
#324 = ORIENTED_EDGE ( 'NONE', *, *, #227, .T. ) ;
#325 = DIRECTION ( 'NONE',  ( 1.000000000000000000, 0.0000000000000000000, 0.0000000000000000000 ) ) ;
#326 = AXIS2_PLACEMENT_3D ( 'NONE', #65, #277, #97 ) ;
#327 = EDGE_LOOP ( 'NONE', ( #185, #364, #49, #282 ) ) ;
#328 = DIRECTION ( 'NONE',  ( 1.000000000000000000, 0.0000000000000000000, 0.0000000000000000000 ) ) ;
#329 = CARTESIAN_POINT ( 'NONE',  ( 0.0000000000000000000, 0.0000000000000000000, 0.4595473327029253600 ) ) ;
#330 = EDGE_CURVE ( 'NONE', #96, #138, #47, .T. ) ;
#331 = AXIS2_PLACEMENT_3D ( 'NONE', #340, #368, #20 ) ;
#332 = FACE_OUTER_BOUND ( 'NONE', #259, .T. ) ;
#333 = EDGE_LOOP ( 'NONE', ( #353, #309, #110, #82 ) ) ;
#334 = VECTOR ( 'NONE', #89, 1000.000000000000000 ) ;
#335 = VECTOR ( 'NONE', #129, 1000.000000000000000 ) ;
#336 = ORIENTED_EDGE ( 'NONE', *, *, #11, .F. ) ;
#337 = DIRECTION ( 'NONE',  ( 1.000000000000000000, 0.0000000000000000000, 0.0000000000000000000 ) ) ;
#338 = FACE_OUTER_BOUND ( 'NONE', #127, .T. ) ;
#339 = ORIENTED_EDGE ( 'NONE', *, *, #142, .T. ) ;
#340 = CARTESIAN_POINT ( 'NONE',  ( 0.0000000000000000000, 0.0000000000000000000, 15.00000000000000000 ) ) ;
#341 = CIRCLE ( 'NONE', #164, 2.999999999999998700 ) ;
#342 = PRODUCT_DEFINITION_SHAPE ( 'NONE', 'NONE',  #50 ) ;
#343 = DIRECTION ( 'NONE',  ( 1.000000000000000000, 0.0000000000000000000, 0.0000000000000000000 ) ) ;
#344 = AXIS2_PLACEMENT_3D ( 'NONE', #7, #181, #376 ) ;
#345 =( LENGTH_UNIT ( ) NAMED_UNIT ( * ) SI_UNIT ( .MILLI., .METRE. ) );
#346 = FACE_OUTER_BOUND ( 'NONE', #24, .T. ) ;
#347 = CLOSED_SHELL ( 'NONE', ( #122, #215, #241, #60, #271, #348, #269, #375, #243, #268, #320, #179, #214 ) ) ;
#348 = ADVANCED_FACE ( 'NONE', ( #306 ), #126, .T. ) ;
#349 = CARTESIAN_POINT ( 'NONE',  ( 0.0000000000000000000, 0.0000000000000000000, 15.00000000000000000 ) ) ;
#350 = EDGE_CURVE ( 'NONE', #102, #250, #44, .T. ) ;
#351 = CIRCLE ( 'NONE', #115, 2.004049279377356100 ) ;
#352 = AXIS2_PLACEMENT_3D ( 'NONE', #3, #37, #278 ) ;
#353 = ORIENTED_EDGE ( 'NONE', *, *, #11, .T. ) ;
#354 = CARTESIAN_POINT ( 'NONE',  ( 2.004049279377356100, 0.0000000000000000000, 5.000000000000000900 ) ) ;
#355 = CARTESIAN_POINT ( 'NONE',  ( 2.004049279377356100, 0.0000000000000000000, 15.00000000000000000 ) ) ;
#356 = MANIFOLD_SOLID_BREP ( 'Fase1', #347 ) ;
#357 = DIRECTION ( 'NONE',  ( 0.0000000000000000000, -0.0000000000000000000, 1.000000000000000000 ) ) ;
#358 = CIRCLE ( 'NONE', #311, 4.370268958135002700 ) ;
#359 = PLANE ( 'NONE',  #73 ) ;
#360 = CIRCLE ( 'NONE', #326, 2.485628142878610000 ) ;
#361 = EDGE_LOOP ( 'NONE', ( #287, #64 ) ) ;
#362 = LINE ( 'NONE', #62, #334 ) ;
#363 = VERTEX_POINT ( 'NONE', #112 ) ;
#364 = ORIENTED_EDGE ( 'NONE', *, *, #171, .F. ) ;
#365 = EDGE_CURVE ( 'NONE', #321, #317, #4, .T. ) ;
#366 = DIRECTION ( 'NONE',  ( 1.000000000000000000, 0.0000000000000000000, 0.0000000000000000000 ) ) ;
#367 = AXIS2_PLACEMENT_3D ( 'NONE', #95, #40, #92 ) ;
#368 = DIRECTION ( 'NONE',  ( -0.0000000000000000000, -0.0000000000000000000, 1.000000000000000000 ) ) ;
#369 = FILL_AREA_STYLE_COLOUR ( '', #192 ) ;
#370 = FILL_AREA_STYLE ('',( #372 ) ) ;
#371 = CIRCLE ( 'NONE', #182, 4.370268958135002700 ) ;
#372 = FILL_AREA_STYLE_COLOUR ( '', #135 ) ;
#373 = ORIENTED_EDGE ( 'NONE', *, *, #244, .F. ) ;
#374 = EDGE_CURVE ( 'NONE', #198, #12, #249, .T. ) ;
#375 = ADVANCED_FACE ( 'NONE', ( #281 ), #217, .T. ) ;
#376 = DIRECTION ( 'NONE',  ( 1.000000000000000000, 0.0000000000000000000, 0.0000000000000000000 ) ) ;
ENDSEC;
END-ISO-10303-21;
