ISO-10303-21;
HEADER;
FILE_DESCRIPTION (( 'STEP AP214' ),
    '1' );
FILE_NAME ('IF-PI-3.20-2.30_2017_08_21.STEP',
    '2017-08-21T11:31:22',
    ( '' ),
    ( '' ),
    'SwSTEP 2.0',
    'SolidWorks 2017',
    '' );
FILE_SCHEMA (( 'AUTOMOTIVE_DESIGN' ));
ENDSEC;

DATA;
#1 = AXIS2_PLACEMENT_3D ( 'NONE', #63, #199, #21 ) ;
#2 = CARTESIAN_POINT ( 'NONE',  ( -1.014999999999999900, 1.243016501134563300E-016, 3.200000000000000200 ) ) ;
#3 = VERTEX_POINT ( 'NONE', #217 ) ;
#4 = EDGE_CURVE ( 'NONE', #176, #3, #211, .T. ) ;
#5 = FILL_AREA_STYLE ('',( #201 ) ) ;
#6 = ADVANCED_BREP_SHAPE_REPRESENTATION ( 'IF-PI-3.20-2.30_2017_08_21', ( #193, #125 ), #202 ) ;
#7 = CYLINDRICAL_SURFACE ( 'NONE', #213, 1.014999999999999900 ) ;
#8 = CIRCLE ( 'NONE', #167, 1.014999999999999900 ) ;
#9 = VECTOR ( 'NONE', #179, 1000.000000000000000 ) ;
#10 = PLANE ( 'NONE',  #14 ) ;
#11 = ORIENTED_EDGE ( 'NONE', *, *, #4, .T. ) ;
#12 = PLANE ( 'NONE',  #74 ) ;
#13 = VERTEX_POINT ( 'NONE', #189 ) ;
#14 = AXIS2_PLACEMENT_3D ( 'NONE', #174, #59, #215 ) ;
#15 = UNCERTAINTY_MEASURE_WITH_UNIT (LENGTH_MEASURE( 1.000000000000000100E-005 ), #33, 'distance_accuracy_value', 'NONE');
#16 = CYLINDRICAL_SURFACE ( 'NONE', #24, 0.7875000000000002000 ) ;
#17 = EDGE_CURVE ( 'NONE', #52, #32, #68, .T. ) ;
#18 = DIRECTION ( 'NONE',  ( -0.0000000000000000000, -0.0000000000000000000, 1.000000000000000000 ) ) ;
#19 = DIRECTION ( 'NONE',  ( 1.000000000000000000, 0.0000000000000000000, 0.0000000000000000000 ) ) ;
#20 = DIRECTION ( 'NONE',  ( -1.000000000000000000, 0.0000000000000000000, -0.0000000000000000000 ) ) ;
#21 = DIRECTION ( 'NONE',  ( 1.000000000000000000, 0.0000000000000000000, 0.0000000000000000000 ) ) ;
#22 = ADVANCED_FACE ( 'NONE', ( #40 ), #10, .F. ) ;
#23 = FACE_OUTER_BOUND ( 'NONE', #216, .T. ) ;
#24 = AXIS2_PLACEMENT_3D ( 'NONE', #117, #27, #106 ) ;
#25 = EDGE_CURVE ( 'NONE', #13, #52, #78, .T. ) ;
#26 = CARTESIAN_POINT ( 'NONE',  ( 1.014999999999999900, 0.0000000000000000000, 3.200000000000000200 ) ) ;
#27 = DIRECTION ( 'NONE',  ( -0.0000000000000000000, -0.0000000000000000000, 1.000000000000000000 ) ) ;
#28 = ORIENTED_EDGE ( 'NONE', *, *, #175, .T. ) ;
#29 = CIRCLE ( 'NONE', #130, 1.014999999999999900 ) ;
#30 = ORIENTED_EDGE ( 'NONE', *, *, #160, .T. ) ;
#31 = PRESENTATION_LAYER_ASSIGNMENT (  '', '', ( #150 ) ) ;
#32 = VERTEX_POINT ( 'NONE', #105 ) ;
#33 =( LENGTH_UNIT ( ) NAMED_UNIT ( * ) SI_UNIT ( .MILLI., .METRE. ) );
#34 = CARTESIAN_POINT ( 'NONE',  ( -0.7874999999999999800, 0.0000000000000000000, 3.200000000000000200 ) ) ;
#35 = VERTEX_POINT ( 'NONE', #71 ) ;
#36 = SURFACE_SIDE_STYLE ('',( #140 ) ) ;
#37 = FACE_OUTER_BOUND ( 'NONE', #57, .T. ) ;
#38 = ORIENTED_EDGE ( 'NONE', *, *, #151, .T. ) ;
#39 = SURFACE_STYLE_FILL_AREA ( #5 ) ;
#40 = FACE_OUTER_BOUND ( 'NONE', #190, .T. ) ;
#41 = DIRECTION ( 'NONE',  ( -0.0000000000000000000, -0.0000000000000000000, 1.000000000000000000 ) ) ;
#42 = ORIENTED_EDGE ( 'NONE', *, *, #209, .T. ) ;
#43 = CARTESIAN_POINT ( 'NONE',  ( 0.0000000000000000000, 0.0000000000000000000, 3.200000000000000200 ) ) ;
#44 = PRODUCT_DEFINITION ( 'UNKNOWN', '', #192, #90 ) ;
#45 = EDGE_LOOP ( 'NONE', ( #11, #155 ) ) ;
#46 = DIRECTION ( 'NONE',  ( 1.000000000000000000, 0.0000000000000000000, 0.0000000000000000000 ) ) ;
#47 = DIRECTION ( 'NONE',  ( -0.0000000000000000000, -0.0000000000000000000, 1.000000000000000000 ) ) ;
#48 = UNCERTAINTY_MEASURE_WITH_UNIT (LENGTH_MEASURE( 1.000000000000000100E-005 ), #128, 'distance_accuracy_value', 'NONE');
#49 =( NAMED_UNIT ( * ) PLANE_ANGLE_UNIT ( ) SI_UNIT ( $, .RADIAN. ) );
#50 =( NAMED_UNIT ( * ) SI_UNIT ( $, .STERADIAN. ) SOLID_ANGLE_UNIT ( ) );
#51 =( NAMED_UNIT ( * ) PLANE_ANGLE_UNIT ( ) SI_UNIT ( $, .RADIAN. ) );
#52 = VERTEX_POINT ( 'NONE', #118 ) ;
#53 = UNCERTAINTY_MEASURE_WITH_UNIT (LENGTH_MEASURE( 1.000000000000000100E-005 ), #184, 'distance_accuracy_value', 'NONE');
#54 = DIRECTION ( 'NONE',  ( -0.0000000000000000000, -0.0000000000000000000, 1.000000000000000000 ) ) ;
#55 = MECHANICAL_DESIGN_GEOMETRIC_PRESENTATION_REPRESENTATION (  '', ( #150 ), #87 ) ;
#56 = ADVANCED_FACE ( 'NONE', ( #23 ), #16, .T. ) ;
#57 = EDGE_LOOP ( 'NONE', ( #81, #30 ) ) ;
#58 = DIRECTION ( 'NONE',  ( 1.000000000000000000, 0.0000000000000000000, 0.0000000000000000000 ) ) ;
#59 = DIRECTION ( 'NONE',  ( 0.0000000000000000000, -0.0000000000000000000, 1.000000000000000000 ) ) ;
#60 = DIRECTION ( 'NONE',  ( 1.000000000000000000, 0.0000000000000000000, 0.0000000000000000000 ) ) ;
#61 = ORIENTED_EDGE ( 'NONE', *, *, #145, .F. ) ;
#62 = CARTESIAN_POINT ( 'NONE',  ( 0.0000000000000000000, 0.0000000000000000000, 3.200000000000000200 ) ) ;
#63 = CARTESIAN_POINT ( 'NONE',  ( 0.0000000000000000000, 0.0000000000000000000, 0.1800000000000000500 ) ) ;
#64 = CARTESIAN_POINT ( 'NONE',  ( -0.7875000000000002000, 9.644093543285409200E-017, 3.200000000000000200 ) ) ;
#65 = APPLICATION_PROTOCOL_DEFINITION ( 'draft international standard', 'automotive_design', 1998, #85 ) ;
#66 = CARTESIAN_POINT ( 'NONE',  ( 0.0000000000000000000, 0.0000000000000000000, 0.0000000000000000000 ) ) ;
#67 = CIRCLE ( 'NONE', #1, 0.7875000000000004200 ) ;
#68 = CIRCLE ( 'NONE', #93, 1.014999999999999900 ) ;
#69 = ADVANCED_FACE ( 'NONE', ( #149 ), #172, .T. ) ;
#70 = ORIENTED_EDGE ( 'NONE', *, *, #17, .F. ) ;
#71 = CARTESIAN_POINT ( 'NONE',  ( -0.7875000000000004200, 9.644093543285411700E-017, 0.1800000000000000500 ) ) ;
#72 = EDGE_LOOP ( 'NONE', ( #135, #153 ) ) ;
#73 = CARTESIAN_POINT ( 'NONE',  ( 0.0000000000000000000, 0.0000000000000000000, 3.200000000000000200 ) ) ;
#74 = AXIS2_PLACEMENT_3D ( 'NONE', #195, #180, #75 ) ;
#75 = DIRECTION ( 'NONE',  ( -1.000000000000000000, 0.0000000000000000000, -0.0000000000000000000 ) ) ;
#76 = EDGE_CURVE ( 'NONE', #3, #176, #143, .T. ) ;
#77 = DIRECTION ( 'NONE',  ( 1.000000000000000000, 0.0000000000000000000, 0.0000000000000000000 ) ) ;
#78 = LINE ( 'NONE', #26, #206 ) ;
#79 = APPLICATION_CONTEXT ( 'automotive_design' ) ;
#80 = DIRECTION ( 'NONE',  ( 1.000000000000000000, 0.0000000000000000000, 0.0000000000000000000 ) ) ;
#81 = ORIENTED_EDGE ( 'NONE', *, *, #17, .T. ) ;
#82 = PRESENTATION_STYLE_ASSIGNMENT (( #100 ) ) ;
#83 = DIRECTION ( 'NONE',  ( 0.0000000000000000000, 0.0000000000000000000, 1.000000000000000000 ) ) ;
#84 = STYLED_ITEM ( 'NONE', ( #82 ), #6 ) ;
#85 = APPLICATION_CONTEXT ( 'automotive_design' ) ;
#86 = ORIENTED_EDGE ( 'NONE', *, *, #76, .F. ) ;
#87 =( GEOMETRIC_REPRESENTATION_CONTEXT ( 3 ) GLOBAL_UNCERTAINTY_ASSIGNED_CONTEXT ( ( #53 ) ) GLOBAL_UNIT_ASSIGNED_CONTEXT ( ( #184, #49, #127 ) ) REPRESENTATION_CONTEXT ( 'NONE', 'WORKASPACE' ) );
#88 = AXIS2_PLACEMENT_3D ( 'NONE', #34, #207, #20 ) ;
#89 = ORIENTED_EDGE ( 'NONE', *, *, #154, .T. ) ;
#90 = PRODUCT_DEFINITION_CONTEXT ( 'detailed design', #85, 'design' ) ;
#91 = AXIS2_PLACEMENT_3D ( 'NONE', #124, #108, #119 ) ;
#92 = ORIENTED_EDGE ( 'NONE', *, *, #113, .T. ) ;
#93 = AXIS2_PLACEMENT_3D ( 'NONE', #212, #156, #60 ) ;
#94 = FILL_AREA_STYLE_COLOUR ( '', #191 ) ;
#95 = CIRCLE ( 'NONE', #178, 1.014999999999999900 ) ;
#96 = CARTESIAN_POINT ( 'NONE',  ( -1.014999999999999900, 1.243016501134563300E-016, 0.0000000000000000000 ) ) ;
#97 = CARTESIAN_POINT ( 'NONE',  ( 0.7875000000000002000, 0.0000000000000000000, 3.200000000000000200 ) ) ;
#98 = PRODUCT_CONTEXT ( 'NONE', #79, 'mechanical' ) ;
#99 = SHAPE_DEFINITION_REPRESENTATION ( #148, #6 ) ;
#100 = SURFACE_STYLE_USAGE ( .BOTH. , #144 ) ;
#101 = DIRECTION ( 'NONE',  ( 1.000000000000000000, 0.0000000000000000000, 0.0000000000000000000 ) ) ;
#102 = EDGE_LOOP ( 'NONE', ( #42, #38, #70, #121 ) ) ;
#103 = ADVANCED_FACE ( 'NONE', ( #198, #37 ), #12, .F. ) ;
#104 = VERTEX_POINT ( 'NONE', #110 ) ;
#105 = CARTESIAN_POINT ( 'NONE',  ( -1.014999999999999900, 1.243016501134563300E-016, 0.1800000000000000500 ) ) ;
#106 = DIRECTION ( 'NONE',  ( 1.000000000000000000, 0.0000000000000000000, 0.0000000000000000000 ) ) ;
#107 = EDGE_LOOP ( 'NONE', ( #220, #111, #152, #112 ) ) ;
#108 = DIRECTION ( 'NONE',  ( -0.0000000000000000000, -0.0000000000000000000, 1.000000000000000000 ) ) ;
#109 = CARTESIAN_POINT ( 'NONE',  ( 0.7874999999999999800, 0.0000000000000000000, 3.200000000000000200 ) ) ;
#110 = CARTESIAN_POINT ( 'NONE',  ( 0.7875000000000004200, 0.0000000000000000000, 0.1800000000000000500 ) ) ;
#111 = ORIENTED_EDGE ( 'NONE', *, *, #145, .T. ) ;
#112 = ORIENTED_EDGE ( 'NONE', *, *, #160, .F. ) ;
#113 = EDGE_CURVE ( 'NONE', #104, #35, #133, .T. ) ;
#114 = ADVANCED_FACE ( 'NONE', ( #188 ), #7, .T. ) ;
#115 = ORIENTED_EDGE ( 'NONE', *, *, #120, .F. ) ;
#116 = EDGE_LOOP ( 'NONE', ( #194, #28, #186, #86 ) ) ;
#117 = CARTESIAN_POINT ( 'NONE',  ( 0.0000000000000000000, 0.0000000000000000000, 3.200000000000000200 ) ) ;
#118 = CARTESIAN_POINT ( 'NONE',  ( 1.014999999999999900, 0.0000000000000000000, 0.1800000000000000500 ) ) ;
#119 = DIRECTION ( 'NONE',  ( 1.000000000000000000, 0.0000000000000000000, 0.0000000000000000000 ) ) ;
#120 = EDGE_CURVE ( 'NONE', #104, #176, #173, .T. ) ;
#121 = ORIENTED_EDGE ( 'NONE', *, *, #25, .F. ) ;
#122 = DIRECTION ( 'NONE',  ( 1.000000000000000000, 0.0000000000000000000, 0.0000000000000000000 ) ) ;
#123 = VECTOR ( 'NONE', #181, 1000.000000000000000 ) ;
#124 = CARTESIAN_POINT ( 'NONE',  ( 0.0000000000000000000, 0.0000000000000000000, 0.1800000000000000500 ) ) ;
#125 = AXIS2_PLACEMENT_3D ( 'NONE', #66, #83, #101 ) ;
#126 = DIRECTION ( 'NONE',  ( -0.0000000000000000000, -0.0000000000000000000, 1.000000000000000000 ) ) ;
#127 =( NAMED_UNIT ( * ) SI_UNIT ( $, .STERADIAN. ) SOLID_ANGLE_UNIT ( ) );
#128 =( LENGTH_UNIT ( ) NAMED_UNIT ( * ) SI_UNIT ( .MILLI., .METRE. ) );
#129 = CYLINDRICAL_SURFACE ( 'NONE', #147, 0.7875000000000002000 ) ;
#130 = AXIS2_PLACEMENT_3D ( 'NONE', #137, #18, #46 ) ;
#131 = PRESENTATION_LAYER_ASSIGNMENT (  '', '', ( #84 ) ) ;
#132 = VERTEX_POINT ( 'NONE', #96 ) ;
#133 = CIRCLE ( 'NONE', #91, 0.7875000000000004200 ) ;
#134 = DIRECTION ( 'NONE',  ( -0.0000000000000000000, -0.0000000000000000000, 1.000000000000000000 ) ) ;
#135 = ORIENTED_EDGE ( 'NONE', *, *, #113, .F. ) ;
#136 = DIRECTION ( 'NONE',  ( -0.0000000000000000000, -0.0000000000000000000, 1.000000000000000000 ) ) ;
#137 = CARTESIAN_POINT ( 'NONE',  ( 0.0000000000000000000, 0.0000000000000000000, 0.1800000000000000500 ) ) ;
#138 = PRODUCT ( 'IF-PI-3.20-2.30_2017_08_21', 'IF-PI-3.20-2.30_2017_08_21', '', ( #98 ) ) ;
#139 = DIRECTION ( 'NONE',  ( -0.0000000000000000000, -0.0000000000000000000, 1.000000000000000000 ) ) ;
#140 = SURFACE_STYLE_FILL_AREA ( #182 ) ;
#141 = MECHANICAL_DESIGN_GEOMETRIC_PRESENTATION_REPRESENTATION (  '', ( #84 ), #158 ) ;
#142 = CARTESIAN_POINT ( 'NONE',  ( 0.0000000000000000000, 0.0000000000000000000, 0.0000000000000000000 ) ) ;
#143 = CIRCLE ( 'NONE', #171, 0.7874999999999999800 ) ;
#144 = SURFACE_SIDE_STYLE ('',( #39 ) ) ;
#145 = EDGE_CURVE ( 'NONE', #132, #13, #95, .T. ) ;
#146 = ADVANCED_FACE ( 'NONE', ( #214 ), #129, .T. ) ;
#147 = AXIS2_PLACEMENT_3D ( 'NONE', #62, #139, #77 ) ;
#148 = PRODUCT_DEFINITION_SHAPE ( 'NONE', 'NONE',  #44 ) ;
#149 = FACE_OUTER_BOUND ( 'NONE', #102, .T. ) ;
#150 = STYLED_ITEM ( 'NONE', ( #218 ), #193 ) ;
#151 = EDGE_CURVE ( 'NONE', #132, #32, #185, .T. ) ;
#152 = ORIENTED_EDGE ( 'NONE', *, *, #25, .T. ) ;
#153 = ORIENTED_EDGE ( 'NONE', *, *, #175, .F. ) ;
#154 = EDGE_CURVE ( 'NONE', #35, #3, #196, .T. ) ;
#155 = ORIENTED_EDGE ( 'NONE', *, *, #76, .T. ) ;
#156 = DIRECTION ( 'NONE',  ( -0.0000000000000000000, -0.0000000000000000000, 1.000000000000000000 ) ) ;
#157 = VECTOR ( 'NONE', #136, 1000.000000000000000 ) ;
#158 =( GEOMETRIC_REPRESENTATION_CONTEXT ( 3 ) GLOBAL_UNCERTAINTY_ASSIGNED_CONTEXT ( ( #15 ) ) GLOBAL_UNIT_ASSIGNED_CONTEXT ( ( #33, #170, #50 ) ) REPRESENTATION_CONTEXT ( 'NONE', 'WORKASPACE' ) );
#159 = CARTESIAN_POINT ( 'NONE',  ( 0.0000000000000000000, 0.0000000000000000000, 0.0000000000000000000 ) ) ;
#160 = EDGE_CURVE ( 'NONE', #32, #52, #29, .T. ) ;
#161 = DIRECTION ( 'NONE',  ( 1.000000000000000000, 0.0000000000000000000, 0.0000000000000000000 ) ) ;
#162 = PRODUCT_RELATED_PRODUCT_CATEGORY ( 'part', '', ( #138 ) ) ;
#163 = COLOUR_RGB ( '',0.8274509803921568100, 0.6666666666666666300, 0.1294117647058823400 ) ;
#164 = CARTESIAN_POINT ( 'NONE',  ( 0.0000000000000000000, 0.0000000000000000000, 3.200000000000000200 ) ) ;
#165 = CLOSED_SHELL ( 'NONE', ( #56, #69, #22, #114, #103, #146, #208 ) ) ;
#166 = SURFACE_STYLE_USAGE ( .BOTH. , #36 ) ;
#167 = AXIS2_PLACEMENT_3D ( 'NONE', #142, #54, #80 ) ;
#168 = ORIENTED_EDGE ( 'NONE', *, *, #209, .F. ) ;
#169 =( NAMED_UNIT ( * ) SI_UNIT ( $, .STERADIAN. ) SOLID_ANGLE_UNIT ( ) );
#170 =( NAMED_UNIT ( * ) PLANE_ANGLE_UNIT ( ) SI_UNIT ( $, .RADIAN. ) );
#171 = AXIS2_PLACEMENT_3D ( 'NONE', #73, #126, #200 ) ;
#172 = CYLINDRICAL_SURFACE ( 'NONE', #187, 1.014999999999999900 ) ;
#173 = LINE ( 'NONE', #97, #9 ) ;
#174 = CARTESIAN_POINT ( 'NONE',  ( 0.0000000000000000000, 0.0000000000000000000, 0.0000000000000000000 ) ) ;
#175 = EDGE_CURVE ( 'NONE', #35, #104, #67, .T. ) ;
#176 = VERTEX_POINT ( 'NONE', #109 ) ;
#177 = DIRECTION ( 'NONE',  ( -0.0000000000000000000, -0.0000000000000000000, 1.000000000000000000 ) ) ;
#178 = AXIS2_PLACEMENT_3D ( 'NONE', #159, #47, #161 ) ;
#179 = DIRECTION ( 'NONE',  ( -0.0000000000000000000, -0.0000000000000000000, 1.000000000000000000 ) ) ;
#180 = DIRECTION ( 'NONE',  ( 0.0000000000000000000, 0.0000000000000000000, -1.000000000000000000 ) ) ;
#181 = DIRECTION ( 'NONE',  ( -0.0000000000000000000, -0.0000000000000000000, 1.000000000000000000 ) ) ;
#182 = FILL_AREA_STYLE ('',( #94 ) ) ;
#183 = PLANE ( 'NONE',  #88 ) ;
#184 =( LENGTH_UNIT ( ) NAMED_UNIT ( * ) SI_UNIT ( .MILLI., .METRE. ) );
#185 = LINE ( 'NONE', #2, #123 ) ;
#186 = ORIENTED_EDGE ( 'NONE', *, *, #120, .T. ) ;
#187 = AXIS2_PLACEMENT_3D ( 'NONE', #164, #197, #19 ) ;
#188 = FACE_OUTER_BOUND ( 'NONE', #107, .T. ) ;
#189 = CARTESIAN_POINT ( 'NONE',  ( 1.014999999999999900, 0.0000000000000000000, 0.0000000000000000000 ) ) ;
#190 = EDGE_LOOP ( 'NONE', ( #168, #61 ) ) ;
#191 = COLOUR_RGB ( '',0.8274509803921568100, 0.6666666666666666300, 0.1294117647058823400 ) ;
#192 = PRODUCT_DEFINITION_FORMATION_WITH_SPECIFIED_SOURCE ( 'ANY', '', #138, .NOT_KNOWN. ) ;
#193 = MANIFOLD_SOLID_BREP ( 'Rotation1', #165 ) ;
#194 = ORIENTED_EDGE ( 'NONE', *, *, #154, .F. ) ;
#195 = CARTESIAN_POINT ( 'NONE',  ( -1.014999999999999900, 0.0000000000000000000, 0.1800000000000001300 ) ) ;
#196 = LINE ( 'NONE', #64, #157 ) ;
#197 = DIRECTION ( 'NONE',  ( -0.0000000000000000000, -0.0000000000000000000, 1.000000000000000000 ) ) ;
#198 = FACE_BOUND ( 'NONE', #72, .T. ) ;
#199 = DIRECTION ( 'NONE',  ( -0.0000000000000000000, -0.0000000000000000000, 1.000000000000000000 ) ) ;
#200 = DIRECTION ( 'NONE',  ( 1.000000000000000000, 0.0000000000000000000, 0.0000000000000000000 ) ) ;
#201 = FILL_AREA_STYLE_COLOUR ( '', #163 ) ;
#202 =( GEOMETRIC_REPRESENTATION_CONTEXT ( 3 ) GLOBAL_UNCERTAINTY_ASSIGNED_CONTEXT ( ( #48 ) ) GLOBAL_UNIT_ASSIGNED_CONTEXT ( ( #128, #51, #169 ) ) REPRESENTATION_CONTEXT ( 'NONE', 'WORKASPACE' ) );
#203 = APPLICATION_PROTOCOL_DEFINITION ( 'draft international standard', 'automotive_design', 1998, #79 ) ;
#204 = AXIS2_PLACEMENT_3D ( 'NONE', #43, #41, #58 ) ;
#205 = FACE_OUTER_BOUND ( 'NONE', #45, .T. ) ;
#206 = VECTOR ( 'NONE', #134, 1000.000000000000000 ) ;
#207 = DIRECTION ( 'NONE',  ( 0.0000000000000000000, 0.0000000000000000000, -1.000000000000000000 ) ) ;
#208 = ADVANCED_FACE ( 'NONE', ( #205 ), #183, .F. ) ;
#209 = EDGE_CURVE ( 'NONE', #13, #132, #8, .T. ) ;
#210 = ORIENTED_EDGE ( 'NONE', *, *, #4, .F. ) ;
#211 = CIRCLE ( 'NONE', #204, 0.7874999999999999800 ) ;
#212 = CARTESIAN_POINT ( 'NONE',  ( 0.0000000000000000000, 0.0000000000000000000, 0.1800000000000000500 ) ) ;
#213 = AXIS2_PLACEMENT_3D ( 'NONE', #219, #177, #122 ) ;
#214 = FACE_OUTER_BOUND ( 'NONE', #116, .T. ) ;
#215 = DIRECTION ( 'NONE',  ( 1.000000000000000000, 0.0000000000000000000, 0.0000000000000000000 ) ) ;
#216 = EDGE_LOOP ( 'NONE', ( #92, #89, #210, #115 ) ) ;
#217 = CARTESIAN_POINT ( 'NONE',  ( -0.7874999999999999800, 9.644093543285408000E-017, 3.200000000000000200 ) ) ;
#218 = PRESENTATION_STYLE_ASSIGNMENT (( #166 ) ) ;
#219 = CARTESIAN_POINT ( 'NONE',  ( 0.0000000000000000000, 0.0000000000000000000, 3.200000000000000200 ) ) ;
#220 = ORIENTED_EDGE ( 'NONE', *, *, #151, .F. ) ;
ENDSEC;
END-ISO-10303-21;
