ISO-10303-21;
HEADER;
FILE_DESCRIPTION (( 'STEP AP214' ),
    '1' );
FILE_NAME ('IF-PI-6.58-2.03.STEP',
    '2020-06-04T08:22:06',
    ( '' ),
    ( '' ),
    'SwSTEP 2.0',
    'SolidWorks 2020',
    '' );
FILE_SCHEMA (( 'AUTOMOTIVE_DESIGN' ));
ENDSEC;

DATA;
#1 = STYLED_ITEM ( 'NONE', ( #69 ), #166 ) ;
#2 = CARTESIAN_POINT ( 'NONE',  ( -0.7850000000000000311, -6.579999999999999183, 0.0000000000000000000 ) ) ;
#3 = DIRECTION ( 'NONE',  ( -0.0000000000000000000, -1.000000000000000000, -0.0000000000000000000 ) ) ;
#4 = APPLICATION_CONTEXT ( 'automotive_design' ) ;
#5 = CIRCLE ( 'NONE', #201, 0.7850000000000000311 ) ;
#6 = FACE_OUTER_BOUND ( 'NONE', #168, .T. ) ;
#7 = DIRECTION ( 'NONE',  ( -0.0000000000000000000, -1.000000000000000000, -0.0000000000000000000 ) ) ;
#8 = CLOSED_SHELL ( 'NONE', ( #191, #144, #10, #110, #14, #178, #155 ) ) ;
#9 = AXIS2_PLACEMENT_3D ( 'NONE', #85, #73, #126 ) ;
#10 = ADVANCED_FACE ( 'NONE', ( #94 ), #218, .F. ) ;
#11 = ORIENTED_EDGE ( 'NONE', *, *, #161, .T. ) ;
#12 = VERTEX_POINT ( 'NONE', #77 ) ;
#13 = EDGE_LOOP ( 'NONE', ( #57, #160, #150, #105 ) ) ;
#14 = ADVANCED_FACE ( 'NONE', ( #129, #197 ), #30, .F. ) ;
#15 = CARTESIAN_POINT ( 'NONE',  ( 0.0000000000000000000, -6.215082505672816707E-17, 0.0000000000000000000 ) ) ;
#16 = ORIENTED_EDGE ( 'NONE', *, *, #151, .T. ) ;
#17 = LINE ( 'NONE', #79, #107 ) ;
#18 =( LENGTH_UNIT ( ) NAMED_UNIT ( * ) SI_UNIT ( .MILLI., .METRE. ) );
#19 = CYLINDRICAL_SURFACE ( 'NONE', #49, 0.7850000000000003642 ) ;
#20 = DIRECTION ( 'NONE',  ( -0.0000000000000000000, -1.000000000000000000, -0.0000000000000000000 ) ) ;
#21 = UNCERTAINTY_MEASURE_WITH_UNIT (LENGTH_MEASURE( 1.000000000000000082E-05 ), #18, 'distance_accuracy_value', 'NONE');
#22 = DIRECTION ( 'NONE',  ( -0.0000000000000000000, -1.000000000000000000, -0.0000000000000000000 ) ) ;
#23 = PRESENTATION_STYLE_ASSIGNMENT (( #38 ) ) ;
#24 = UNCERTAINTY_MEASURE_WITH_UNIT (LENGTH_MEASURE( 1.000000000000000082E-05 ), #192, 'distance_accuracy_value', 'NONE');
#25 = ORIENTED_EDGE ( 'NONE', *, *, #51, .T. ) ;
#26 = DIRECTION ( 'NONE',  ( 0.0000000000000000000, -1.000000000000000000, -0.0000000000000000000 ) ) ;
#27 = EDGE_LOOP ( 'NONE', ( #184, #163 ) ) ;
#28 = ORIENTED_EDGE ( 'NONE', *, *, #151, .F. ) ;
#29 = CIRCLE ( 'NONE', #170, 1.014999999999999902 ) ;
#30 = PLANE ( 'NONE',  #141 ) ;
#31 = ORIENTED_EDGE ( 'NONE', *, *, #84, .F. ) ;
#32 = PRODUCT_DEFINITION ( 'UNKNOWN', '', #142, #36 ) ;
#33 = FACE_OUTER_BOUND ( 'NONE', #40, .T. ) ;
#34 = PLANE ( 'NONE',  #189 ) ;
#35 = AXIS2_PLACEMENT_3D ( 'NONE', #100, #22, #118 ) ;
#36 = PRODUCT_DEFINITION_CONTEXT ( 'detailed design', #157, 'design' ) ;
#37 = EDGE_CURVE ( 'NONE', #111, #214, #99, .T. ) ;
#38 = SURFACE_STYLE_USAGE ( .BOTH. , #87 ) ;
#39 =( NAMED_UNIT ( * ) PLANE_ANGLE_UNIT ( ) SI_UNIT ( $, .RADIAN. ) );
#40 = EDGE_LOOP ( 'NONE', ( #16, #200, #183, #64 ) ) ;
#41 = ORIENTED_EDGE ( 'NONE', *, *, #116, .F. ) ;
#42 = VECTOR ( 'NONE', #48, 1000.000000000000000 ) ;
#43 = VERTEX_POINT ( 'NONE', #61 ) ;
#44 = PRODUCT ( 'IF-PI-6.58-2.03', 'IF-PI-6.58-2.03', '', ( #177 ) ) ;
#45 = DIRECTION ( 'NONE',  ( -0.0000000000000000000, -1.000000000000000000, -0.0000000000000000000 ) ) ;
#46 = DIRECTION ( 'NONE',  ( -0.0000000000000000000, -1.000000000000000000, -0.0000000000000000000 ) ) ;
#47 = ORIENTED_EDGE ( 'NONE', *, *, #51, .F. ) ;
#48 = DIRECTION ( 'NONE',  ( -0.0000000000000000000, -1.000000000000000000, -0.0000000000000000000 ) ) ;
#49 = AXIS2_PLACEMENT_3D ( 'NONE', #154, #3, #138 ) ;
#50 =( LENGTH_UNIT ( ) NAMED_UNIT ( * ) SI_UNIT ( .MILLI., .METRE. ) );
#51 = EDGE_CURVE ( 'NONE', #58, #78, #5, .T. ) ;
#52 = CARTESIAN_POINT ( 'NONE',  ( 0.0000000000000000000, -0.1800000000000004652, -0.7850000000000008082 ) ) ;
#53 = FACE_OUTER_BOUND ( 'NONE', #125, .T. ) ;
#54 = SURFACE_SIDE_STYLE ('',( #139 ) ) ;
#55 = SURFACE_STYLE_FILL_AREA ( #124 ) ;
#56 = VECTOR ( 'NONE', #132, 1000.000000000000000 ) ;
#57 = ORIENTED_EDGE ( 'NONE', *, *, #86, .F. ) ;
#58 = VERTEX_POINT ( 'NONE', #167 ) ;
#59 = DIRECTION ( 'NONE',  ( -0.0000000000000000000, -1.000000000000000000, -0.0000000000000000000 ) ) ;
#60 = VERTEX_POINT ( 'NONE', #182 ) ;
#61 = CARTESIAN_POINT ( 'NONE',  ( 1.243016501134563341E-16, 0.0000000000000000000, 1.014999999999999902 ) ) ;
#62 = AXIS2_PLACEMENT_3D ( 'NONE', #207, #7, #136 ) ;
#63 = LINE ( 'NONE', #213, #122 ) ;
#64 = ORIENTED_EDGE ( 'NONE', *, *, #95, .F. ) ;
#65 = AXIS2_PLACEMENT_3D ( 'NONE', #128, #202, #93 ) ;
#66 = FACE_OUTER_BOUND ( 'NONE', #13, .T. ) ;
#67 = DIRECTION ( 'NONE',  ( 0.0000000000000000000, 0.0000000000000000000, -1.000000000000000000 ) ) ;
#68 = EDGE_CURVE ( 'NONE', #214, #58, #217, .T. ) ;
#69 = PRESENTATION_STYLE_ASSIGNMENT (( #220 ) ) ;
#70 = AXIS2_PLACEMENT_3D ( 'NONE', #190, #117, #121 ) ;
#71 = CYLINDRICAL_SURFACE ( 'NONE', #70, 1.014999999999999902 ) ;
#72 = EDGE_CURVE ( 'NONE', #214, #111, #165, .T. ) ;
#73 = DIRECTION ( 'NONE',  ( 0.0000000000000000000, 0.0000000000000000000, 1.000000000000000000 ) ) ;
#74 = EDGE_LOOP ( 'NONE', ( #162, #104 ) ) ;
#75 = DIRECTION ( 'NONE',  ( 0.0000000000000000000, 0.0000000000000000000, -1.000000000000000000 ) ) ;
#76 = ORIENTED_EDGE ( 'NONE', *, *, #86, .T. ) ;
#77 = CARTESIAN_POINT ( 'NONE',  ( 0.0000000000000000000, -0.1800000000000004652, -1.014999999999999902 ) ) ;
#78 = VERTEX_POINT ( 'NONE', #195 ) ;
#79 = CARTESIAN_POINT ( 'NONE',  ( 9.613477373306726041E-17, -6.580000000000000071, 0.7850000000000003642 ) ) ;
#80 = CARTESIAN_POINT ( 'NONE',  ( 0.0000000000000000000, -6.580000000000000071, 0.0000000000000000000 ) ) ;
#81 = FILL_AREA_STYLE_COLOUR ( '', #145 ) ;
#82 = CYLINDRICAL_SURFACE ( 'NONE', #101, 0.7850000000000003642 ) ;
#83 = CARTESIAN_POINT ( 'NONE',  ( 0.0000000000000000000, 0.0000000000000000000, -1.014999999999999902 ) ) ;
#84 = EDGE_CURVE ( 'NONE', #43, #60, #97, .T. ) ;
#85 = CARTESIAN_POINT ( 'NONE',  ( 0.0000000000000000000, 0.0000000000000000000, 0.0000000000000000000 ) ) ;
#86 = EDGE_CURVE ( 'NONE', #111, #78, #17, .T. ) ;
#87 = SURFACE_SIDE_STYLE ('',( #55 ) ) ;
#88 = PRESENTATION_LAYER_ASSIGNMENT (  '', '', ( #198 ) ) ;
#89 = ORIENTED_EDGE ( 'NONE', *, *, #68, .F. ) ;
#90 = ORIENTED_EDGE ( 'NONE', *, *, #72, .T. ) ;
#91 = CIRCLE ( 'NONE', #219, 0.7850000000000000311 ) ;
#92 = ORIENTED_EDGE ( 'NONE', *, *, #106, .F. ) ;
#93 = DIRECTION ( 'NONE',  ( 0.0000000000000000000, 0.0000000000000000000, -1.000000000000000000 ) ) ;
#94 = FACE_OUTER_BOUND ( 'NONE', #113, .T. ) ;
#95 = EDGE_CURVE ( 'NONE', #164, #12, #63, .T. ) ;
#96 = DIRECTION ( 'NONE',  ( 0.0000000000000000000, 0.0000000000000000000, -1.000000000000000000 ) ) ;
#97 = LINE ( 'NONE', #169, #56 ) ;
#98 = DIRECTION ( 'NONE',  ( 0.0000000000000000000, 0.0000000000000000000, -1.000000000000000000 ) ) ;
#99 = CIRCLE ( 'NONE', #65, 0.7850000000000008082 ) ;
#100 = CARTESIAN_POINT ( 'NONE',  ( 0.0000000000000000000, 0.0000000000000000000, 0.0000000000000000000 ) ) ;
#101 = AXIS2_PLACEMENT_3D ( 'NONE', #80, #172, #67 ) ;
#102 =( NAMED_UNIT ( * ) PLANE_ANGLE_UNIT ( ) SI_UNIT ( $, .RADIAN. ) );
#103 = SHAPE_DEFINITION_REPRESENTATION ( #212, #133 ) ;
#104 = ORIENTED_EDGE ( 'NONE', *, *, #37, .F. ) ;
#105 = ORIENTED_EDGE ( 'NONE', *, *, #161, .F. ) ;
#106 = EDGE_CURVE ( 'NONE', #43, #164, #29, .T. ) ;
#107 = VECTOR ( 'NONE', #46, 1000.000000000000000 ) ;
#108 = CARTESIAN_POINT ( 'NONE',  ( 0.0000000000000000000, 0.0000000000000000000, 0.0000000000000000000 ) ) ;
#109 = CARTESIAN_POINT ( 'NONE',  ( 0.0000000000000000000, -6.579999999999999183, 0.0000000000000000000 ) ) ;
#110 = ADVANCED_FACE ( 'NONE', ( #53 ), #188, .T. ) ;
#111 = VERTEX_POINT ( 'NONE', #205 ) ;
#112 = CIRCLE ( 'NONE', #196, 1.014999999999999902 ) ;
#113 = EDGE_LOOP ( 'NONE', ( #28, #92 ) ) ;
#114 = DIRECTION ( 'NONE',  ( -0.0000000000000000000, -1.000000000000000000, -0.0000000000000000000 ) ) ;
#115 = MECHANICAL_DESIGN_GEOMETRIC_PRESENTATION_REPRESENTATION (  '', ( #1 ), #149 ) ;
#116 = EDGE_CURVE ( 'NONE', #60, #12, #112, .T. ) ;
#117 = DIRECTION ( 'NONE',  ( -0.0000000000000000000, -1.000000000000000000, -0.0000000000000000000 ) ) ;
#118 = DIRECTION ( 'NONE',  ( 0.0000000000000000000, 0.0000000000000000000, -1.000000000000000000 ) ) ;
#119 = PRESENTATION_LAYER_ASSIGNMENT (  '', '', ( #1 ) ) ;
#120 = FILL_AREA_STYLE ('',( #81 ) ) ;
#121 = DIRECTION ( 'NONE',  ( 0.0000000000000000000, 0.0000000000000000000, -1.000000000000000000 ) ) ;
#122 = VECTOR ( 'NONE', #59, 1000.000000000000000 ) ;
#123 = UNCERTAINTY_MEASURE_WITH_UNIT (LENGTH_MEASURE( 1.000000000000000082E-05 ), #50, 'distance_accuracy_value', 'NONE');
#124 = FILL_AREA_STYLE ('',( #193 ) ) ;
#125 = EDGE_LOOP ( 'NONE', ( #31, #146, #127, #41 ) ) ;
#126 = DIRECTION ( 'NONE',  ( 1.000000000000000000, 0.0000000000000000000, 0.0000000000000000000 ) ) ;
#127 = ORIENTED_EDGE ( 'NONE', *, *, #95, .T. ) ;
#128 = CARTESIAN_POINT ( 'NONE',  ( 0.0000000000000000000, -0.1800000000000004652, 0.0000000000000000000 ) ) ;
#129 = FACE_BOUND ( 'NONE', #74, .T. ) ;
#130 = CARTESIAN_POINT ( 'NONE',  ( 0.0000000000000000000, -6.580000000000000071, -0.7850000000000003642 ) ) ;
#131 = MECHANICAL_DESIGN_GEOMETRIC_PRESENTATION_REPRESENTATION (  '', ( #198 ), #216 ) ;
#132 = DIRECTION ( 'NONE',  ( -0.0000000000000000000, -1.000000000000000000, -0.0000000000000000000 ) ) ;
#133 = ADVANCED_BREP_SHAPE_REPRESENTATION ( 'IF-PI-6.58-2.03', ( #166, #9 ), #179 ) ;
#134 = CIRCLE ( 'NONE', #35, 1.014999999999999902 ) ;
#135 = DIRECTION ( 'NONE',  ( 0.0000000000000000000, -0.0000000000000000000, 1.000000000000000000 ) ) ;
#136 = DIRECTION ( 'NONE',  ( 0.0000000000000000000, 0.0000000000000000000, -1.000000000000000000 ) ) ;
#137 =( NAMED_UNIT ( * ) PLANE_ANGLE_UNIT ( ) SI_UNIT ( $, .RADIAN. ) );
#138 = DIRECTION ( 'NONE',  ( 0.0000000000000000000, 0.0000000000000000000, -1.000000000000000000 ) ) ;
#139 = SURFACE_STYLE_FILL_AREA ( #120 ) ;
#140 = DIRECTION ( 'NONE',  ( 0.0000000000000000000, 0.0000000000000000000, -1.000000000000000000 ) ) ;
#141 = AXIS2_PLACEMENT_3D ( 'NONE', #215, #185, #135 ) ;
#142 = PRODUCT_DEFINITION_FORMATION_WITH_SPECIFIED_SOURCE ( 'ANY', '', #44, .NOT_KNOWN. ) ;
#143 = APPLICATION_PROTOCOL_DEFINITION ( 'draft international standard', 'automotive_design', 1998, #4 ) ;
#144 = ADVANCED_FACE ( 'NONE', ( #33 ), #71, .T. ) ;
#145 = COLOUR_RGB ( '',0.9686274509803921573, 0.8784313725490195957, 0.5999999999999999778 ) ;
#146 = ORIENTED_EDGE ( 'NONE', *, *, #106, .T. ) ;
#147 = DIRECTION ( 'NONE',  ( 0.0000000000000000000, 0.0000000000000000000, -1.000000000000000000 ) ) ;
#148 = DIRECTION ( 'NONE',  ( 0.0000000000000000000, 0.0000000000000000000, -1.000000000000000000 ) ) ;
#149 =( GEOMETRIC_REPRESENTATION_CONTEXT ( 3 ) GLOBAL_UNCERTAINTY_ASSIGNED_CONTEXT ( ( #21 ) ) GLOBAL_UNIT_ASSIGNED_CONTEXT ( ( #18, #102, #153 ) ) REPRESENTATION_CONTEXT ( 'NONE', 'WORKASPACE' ) );
#150 = ORIENTED_EDGE ( 'NONE', *, *, #68, .T. ) ;
#151 = EDGE_CURVE ( 'NONE', #164, #43, #134, .T. ) ;
#152 = DIRECTION ( 'NONE',  ( -0.0000000000000000000, -1.000000000000000000, -0.0000000000000000000 ) ) ;
#153 =( NAMED_UNIT ( * ) SI_UNIT ( $, .STERADIAN. ) SOLID_ANGLE_UNIT ( ) );
#154 = CARTESIAN_POINT ( 'NONE',  ( 0.0000000000000000000, -6.580000000000000071, 0.0000000000000000000 ) ) ;
#155 = ADVANCED_FACE ( 'NONE', ( #6 ), #34, .F. ) ;
#156 = CARTESIAN_POINT ( 'NONE',  ( 0.0000000000000000000, -6.579999999999999183, 0.0000000000000000000 ) ) ;
#157 = APPLICATION_CONTEXT ( 'automotive_design' ) ;
#158 = APPLICATION_PROTOCOL_DEFINITION ( 'draft international standard', 'automotive_design', 1998, #157 ) ;
#159 = COLOUR_RGB ( '',0.9686274509803921573, 0.8784313725490195957, 0.5999999999999999778 ) ;
#160 = ORIENTED_EDGE ( 'NONE', *, *, #37, .T. ) ;
#161 = EDGE_CURVE ( 'NONE', #78, #58, #91, .T. ) ;
#162 = ORIENTED_EDGE ( 'NONE', *, *, #72, .F. ) ;
#163 = ORIENTED_EDGE ( 'NONE', *, *, #116, .T. ) ;
#164 = VERTEX_POINT ( 'NONE', #83 ) ;
#165 = CIRCLE ( 'NONE', #206, 0.7850000000000008082 ) ;
#166 = MANIFOLD_SOLID_BREP ( 'Rotation1', #8 ) ;
#167 = CARTESIAN_POINT ( 'NONE',  ( 0.0000000000000000000, -6.579999999999999183, -0.7850000000000000311 ) ) ;
#168 = EDGE_LOOP ( 'NONE', ( #25, #11 ) ) ;
#169 = CARTESIAN_POINT ( 'NONE',  ( 1.243016501134563341E-16, -6.580000000000000071, 1.014999999999999902 ) ) ;
#170 = AXIS2_PLACEMENT_3D ( 'NONE', #108, #181, #75 ) ;
#171 = DIRECTION ( 'NONE',  ( 0.0000000000000000000, -0.0000000000000000000, 1.000000000000000000 ) ) ;
#172 = DIRECTION ( 'NONE',  ( -0.0000000000000000000, -1.000000000000000000, -0.0000000000000000000 ) ) ;
#173 = FACE_OUTER_BOUND ( 'NONE', #180, .T. ) ;
#174 = AXIS2_PLACEMENT_3D ( 'NONE', #15, #26, #147 ) ;
#175 = DIRECTION ( 'NONE',  ( 0.0000000000000000000, 1.000000000000000000, 0.0000000000000000000 ) ) ;
#176 =( NAMED_UNIT ( * ) SI_UNIT ( $, .STERADIAN. ) SOLID_ANGLE_UNIT ( ) );
#177 = PRODUCT_CONTEXT ( 'NONE', #4, 'mechanical' ) ;
#178 = ADVANCED_FACE ( 'NONE', ( #66 ), #82, .T. ) ;
#179 =( GEOMETRIC_REPRESENTATION_CONTEXT ( 3 ) GLOBAL_UNCERTAINTY_ASSIGNED_CONTEXT ( ( #123 ) ) GLOBAL_UNIT_ASSIGNED_CONTEXT ( ( #50, #137, #176 ) ) REPRESENTATION_CONTEXT ( 'NONE', 'WORKASPACE' ) );
#180 = EDGE_LOOP ( 'NONE', ( #90, #76, #47, #89 ) ) ;
#181 = DIRECTION ( 'NONE',  ( -0.0000000000000000000, -1.000000000000000000, -0.0000000000000000000 ) ) ;
#182 = CARTESIAN_POINT ( 'NONE',  ( 1.243016501134563341E-16, -0.1800000000000004652, 1.014999999999999902 ) ) ;
#183 = ORIENTED_EDGE ( 'NONE', *, *, #208, .F. ) ;
#184 = ORIENTED_EDGE ( 'NONE', *, *, #208, .T. ) ;
#185 = DIRECTION ( 'NONE',  ( 0.0000000000000000000, 1.000000000000000000, 0.0000000000000000000 ) ) ;
#186 = CARTESIAN_POINT ( 'NONE',  ( 0.0000000000000000000, -6.580000000000000071, 0.0000000000000000000 ) ) ;
#187 = CARTESIAN_POINT ( 'NONE',  ( 0.0000000000000000000, -0.1800000000000004652, 0.0000000000000000000 ) ) ;
#188 = CYLINDRICAL_SURFACE ( 'NONE', #210, 1.014999999999999902 ) ;
#189 = AXIS2_PLACEMENT_3D ( 'NONE', #2, #175, #171 ) ;
#190 = CARTESIAN_POINT ( 'NONE',  ( 0.0000000000000000000, -6.580000000000000071, 0.0000000000000000000 ) ) ;
#191 = ADVANCED_FACE ( 'NONE', ( #173 ), #19, .T. ) ;
#192 =( LENGTH_UNIT ( ) NAMED_UNIT ( * ) SI_UNIT ( .MILLI., .METRE. ) );
#193 = FILL_AREA_STYLE_COLOUR ( '', #159 ) ;
#194 =( NAMED_UNIT ( * ) SI_UNIT ( $, .STERADIAN. ) SOLID_ANGLE_UNIT ( ) );
#195 = CARTESIAN_POINT ( 'NONE',  ( 9.613477373306724809E-17, -6.579999999999999183, 0.7850000000000000311 ) ) ;
#196 = AXIS2_PLACEMENT_3D ( 'NONE', #187, #20, #98 ) ;
#197 = FACE_OUTER_BOUND ( 'NONE', #27, .T. ) ;
#198 = STYLED_ITEM ( 'NONE', ( #23 ), #133 ) ;
#199 = CARTESIAN_POINT ( 'NONE',  ( 0.0000000000000000000, -0.1800000000000004652, 0.0000000000000000000 ) ) ;
#200 = ORIENTED_EDGE ( 'NONE', *, *, #84, .T. ) ;
#201 = AXIS2_PLACEMENT_3D ( 'NONE', #109, #45, #96 ) ;
#202 = DIRECTION ( 'NONE',  ( -0.0000000000000000000, -1.000000000000000000, -0.0000000000000000000 ) ) ;
#203 = CIRCLE ( 'NONE', #62, 1.014999999999999902 ) ;
#204 = DIRECTION ( 'NONE',  ( -0.0000000000000000000, -1.000000000000000000, -0.0000000000000000000 ) ) ;
#205 = CARTESIAN_POINT ( 'NONE',  ( 9.613477373306730972E-17, -0.1800000000000004652, 0.7850000000000006972 ) ) ;
#206 = AXIS2_PLACEMENT_3D ( 'NONE', #199, #114, #148 ) ;
#207 = CARTESIAN_POINT ( 'NONE',  ( 0.0000000000000000000, -0.1800000000000004652, 0.0000000000000000000 ) ) ;
#208 = EDGE_CURVE ( 'NONE', #12, #60, #203, .T. ) ;
#209 = DIRECTION ( 'NONE',  ( 0.0000000000000000000, 0.0000000000000000000, -1.000000000000000000 ) ) ;
#210 = AXIS2_PLACEMENT_3D ( 'NONE', #186, #152, #140 ) ;
#211 = PRODUCT_RELATED_PRODUCT_CATEGORY ( 'part', '', ( #44 ) ) ;
#212 = PRODUCT_DEFINITION_SHAPE ( 'NONE', 'NONE',  #32 ) ;
#213 = CARTESIAN_POINT ( 'NONE',  ( 0.0000000000000000000, -6.580000000000000071, -1.014999999999999902 ) ) ;
#214 = VERTEX_POINT ( 'NONE', #52 ) ;
#215 = CARTESIAN_POINT ( 'NONE',  ( -1.014999999999999902, -0.1800000000000001044, 0.0000000000000000000 ) ) ;
#216 =( GEOMETRIC_REPRESENTATION_CONTEXT ( 3 ) GLOBAL_UNCERTAINTY_ASSIGNED_CONTEXT ( ( #24 ) ) GLOBAL_UNIT_ASSIGNED_CONTEXT ( ( #192, #39, #194 ) ) REPRESENTATION_CONTEXT ( 'NONE', 'WORKASPACE' ) );
#217 = LINE ( 'NONE', #130, #42 ) ;
#218 = PLANE ( 'NONE',  #174 ) ;
#219 = AXIS2_PLACEMENT_3D ( 'NONE', #156, #204, #209 ) ;
#220 = SURFACE_STYLE_USAGE ( .BOTH. , #54 ) ;
ENDSEC;
END-ISO-10303-21;
