ISO-10303-21;
HEADER;
FILE_DESCRIPTION (( 'STEP AP214' ),
    '1' );
FILE_NAME ('IF-PI-13.6-3.3.STEP',
    '2020-06-22T06:45:28',
    ( '' ),
    ( '' ),
    'SwSTEP 2.0',
    'SolidWorks 2020',
    '' );
FILE_SCHEMA (( 'AUTOMOTIVE_DESIGN' ));
ENDSEC;

DATA;
#1 = ORIENTED_EDGE ( 'NONE', *, *, #324, .F. ) ;
#2 = CIRCLE ( 'NONE', #25, 1.649999999999999911 ) ;
#3 = EDGE_CURVE ( 'NONE', #80, #32, #274, .T. ) ;
#4 = APPLICATION_CONTEXT ( 'automotive_design' ) ;
#5 = ORIENTED_EDGE ( 'NONE', *, *, #296, .T. ) ;
#6 = AXIS2_PLACEMENT_3D ( 'NONE', #20, #270, #196 ) ;
#7 = ORIENTED_EDGE ( 'NONE', *, *, #21, .F. ) ;
#8 = VECTOR ( 'NONE', #92, 1000.000000000000000 ) ;
#9 = ORIENTED_EDGE ( 'NONE', *, *, #257, .F. ) ;
#10 = DIRECTION ( 'NONE',  ( -0.0000000000000000000, -0.0000000000000000000, 1.000000000000000000 ) ) ;
#11 = ORIENTED_EDGE ( 'NONE', *, *, #257, .T. ) ;
#12 = DIRECTION ( 'NONE',  ( -0.0000000000000000000, -0.0000000000000000000, 1.000000000000000000 ) ) ;
#13 = DIRECTION ( 'NONE',  ( -0.7125961081319922563, 8.726785429087055108E-17, 0.7015745054341255837 ) ) ;
#14 =( NAMED_UNIT ( * ) PLANE_ANGLE_UNIT ( ) SI_UNIT ( $, .RADIAN. ) );
#15 = CIRCLE ( 'NONE', #278, 1.649999999999999911 ) ;
#16 = ORIENTED_EDGE ( 'NONE', *, *, #105, .F. ) ;
#17 = DIRECTION ( 'NONE',  ( 1.000000000000000000, 0.0000000000000000000, 0.0000000000000000000 ) ) ;
#18 = CARTESIAN_POINT ( 'NONE',  ( 1.039999999999998481, 0.0000000000000000000, 10.34999999999999964 ) ) ;
#19 = FILL_AREA_STYLE_COLOUR ( '', #169 ) ;
#20 = CARTESIAN_POINT ( 'NONE',  ( -1.649999999999999911, 0.0000000000000000000, 0.2000000000000001776 ) ) ;
#21 = EDGE_CURVE ( 'NONE', #106, #35, #221, .T. ) ;
#22 = DIRECTION ( 'NONE',  ( -0.0000000000000000000, -0.0000000000000000000, 1.000000000000000000 ) ) ;
#23 = VECTOR ( 'NONE', #10, 1000.000000000000000 ) ;
#24 = DIRECTION ( 'NONE',  ( 1.000000000000000000, 0.0000000000000000000, 0.0000000000000000000 ) ) ;
#25 = AXIS2_PLACEMENT_3D ( 'NONE', #168, #22, #120 ) ;
#26 = DIRECTION ( 'NONE',  ( 1.000000000000000000, 0.0000000000000000000, 0.0000000000000000000 ) ) ;
#27 = CARTESIAN_POINT ( 'NONE',  ( -1.499999999999998224, 0.0000000000000000000, 13.59999999999999964 ) ) ;
#28 = STYLED_ITEM ( 'NONE', ( #145 ), #88 ) ;
#29 = PRODUCT ( 'IF-PI-13.6-3.3', 'IF-PI-13.6-3.3', '', ( #64 ) ) ;
#30 = AXIS2_PLACEMENT_3D ( 'NONE', #173, #217, #241 ) ;
#31 = ORIENTED_EDGE ( 'NONE', *, *, #225, .F. ) ;
#32 = VERTEX_POINT ( 'NONE', #90 ) ;
#33 = UNCERTAINTY_MEASURE_WITH_UNIT (LENGTH_MEASURE( 1.000000000000000082E-05 ), #218, 'distance_accuracy_value', 'NONE');
#34 = DIRECTION ( 'NONE',  ( 1.000000000000000000, 0.0000000000000000000, 0.0000000000000000000 ) ) ;
#35 = VERTEX_POINT ( 'NONE', #65 ) ;
#36 = ORIENTED_EDGE ( 'NONE', *, *, #56, .F. ) ;
#37 = APPLICATION_CONTEXT ( 'automotive_design' ) ;
#38 = SURFACE_SIDE_STYLE ('',( #134 ) ) ;
#39 = DIRECTION ( 'NONE',  ( -0.0000000000000000000, -0.0000000000000000000, 1.000000000000000000 ) ) ;
#40 = DIRECTION ( 'NONE',  ( -0.0000000000000000000, -0.0000000000000000000, 1.000000000000000000 ) ) ;
#41 = LINE ( 'NONE', #210, #205 ) ;
#42 = ORIENTED_EDGE ( 'NONE', *, *, #100, .T. ) ;
#43 = CYLINDRICAL_SURFACE ( 'NONE', #157, 1.499999999999999112 ) ;
#44 = LINE ( 'NONE', #317, #8 ) ;
#45 = FILL_AREA_STYLE ('',( #19 ) ) ;
#46 = DIRECTION ( 'NONE',  ( -0.0000000000000000000, -0.0000000000000000000, 1.000000000000000000 ) ) ;
#47 = CARTESIAN_POINT ( 'NONE',  ( 0.0000000000000000000, 0.0000000000000000000, 9.326085502958793683 ) ) ;
#48 = DIRECTION ( 'NONE',  ( -0.0000000000000000000, -0.0000000000000000000, 1.000000000000000000 ) ) ;
#49 = DIRECTION ( 'NONE',  ( -0.0000000000000000000, -0.0000000000000000000, 1.000000000000000000 ) ) ;
#50 = PLANE ( 'NONE',  #133 ) ;
#51 = COLOUR_RGB ( '',0.9686274509803921573, 0.8784313725490195957, 0.5999999999999999778 ) ;
#52 = PRODUCT_DEFINITION ( 'UNKNOWN', '', #99, #273 ) ;
#53 = EDGE_CURVE ( 'NONE', #255, #215, #167, .T. ) ;
#54 = EDGE_LOOP ( 'NONE', ( #16, #154, #42, #182 ) ) ;
#55 = ORIENTED_EDGE ( 'NONE', *, *, #100, .F. ) ;
#56 = EDGE_CURVE ( 'NONE', #207, #215, #254, .T. ) ;
#57 = DIRECTION ( 'NONE',  ( 0.0000000000000000000, 0.0000000000000000000, 1.000000000000000000 ) ) ;
#58 = EDGE_LOOP ( 'NONE', ( #9, #213, #137, #55 ) ) ;
#59 = ORIENTED_EDGE ( 'NONE', *, *, #148, .T. ) ;
#60 = ADVANCED_FACE ( 'NONE', ( #87, #243 ), #239, .F. ) ;
#61 = DIRECTION ( 'NONE',  ( 0.0000000000000000000, -0.0000000000000000000, 1.000000000000000000 ) ) ;
#62 = DIRECTION ( 'NONE',  ( 1.000000000000000000, 0.0000000000000000000, 0.0000000000000000000 ) ) ;
#63 = DIRECTION ( 'NONE',  ( 1.000000000000000000, 0.0000000000000000000, 0.0000000000000000000 ) ) ;
#64 = PRODUCT_CONTEXT ( 'NONE', #4, 'mechanical' ) ;
#65 = CARTESIAN_POINT ( 'NONE',  ( 1.649999999999999911, 0.0000000000000000000, 0.2000000000000005107 ) ) ;
#66 = DIRECTION ( 'NONE',  ( -0.0000000000000000000, -0.0000000000000000000, 1.000000000000000000 ) ) ;
#67 = AXIS2_PLACEMENT_3D ( 'NONE', #315, #288, #141 ) ;
#68 = DIRECTION ( 'NONE',  ( -0.0000000000000000000, -0.0000000000000000000, 1.000000000000000000 ) ) ;
#69 = CARTESIAN_POINT ( 'NONE',  ( 0.0000000000000000000, 0.0000000000000000000, 9.326085502958793683 ) ) ;
#70 = CARTESIAN_POINT ( 'NONE',  ( -1.649999999999999911, 2.020667218593132755E-16, 0.0000000000000000000 ) ) ;
#71 = ADVANCED_FACE ( 'NONE', ( #151, #297 ), #50, .F. ) ;
#72 = DIRECTION ( 'NONE',  ( -0.0000000000000000000, -0.0000000000000000000, 1.000000000000000000 ) ) ;
#73 = DIRECTION ( 'NONE',  ( -0.0000000000000000000, -0.0000000000000000000, 1.000000000000000000 ) ) ;
#74 = CARTESIAN_POINT ( 'NONE',  ( -1.039999999999998481, 1.273632671113245255E-16, 10.34999999999999964 ) ) ;
#75 =( GEOMETRIC_REPRESENTATION_CONTEXT ( 3 ) GLOBAL_UNCERTAINTY_ASSIGNED_CONTEXT ( ( #33 ) ) GLOBAL_UNIT_ASSIGNED_CONTEXT ( ( #218, #93, #175 ) ) REPRESENTATION_CONTEXT ( 'NONE', 'WORKASPACE' ) );
#76 = EDGE_LOOP ( 'NONE', ( #1, #102 ) ) ;
#77 = VECTOR ( 'NONE', #68, 1000.000000000000000 ) ;
#78 = EDGE_LOOP ( 'NONE', ( #303, #258, #162, #82 ) ) ;
#79 = EDGE_CURVE ( 'NONE', #215, #207, #127, .T. ) ;
#80 = VERTEX_POINT ( 'NONE', #321 ) ;
#81 =( NAMED_UNIT ( * ) SI_UNIT ( $, .STERADIAN. ) SOLID_ANGLE_UNIT ( ) );
#82 = ORIENTED_EDGE ( 'NONE', *, *, #53, .F. ) ;
#83 = PRESENTATION_LAYER_ASSIGNMENT (  '', '', ( #227 ) ) ;
#84 = CARTESIAN_POINT ( 'NONE',  ( 0.0000000000000000000, 0.0000000000000000000, 10.34999999999999964 ) ) ;
#85 = DIRECTION ( 'NONE',  ( 1.000000000000000000, 0.0000000000000000000, 0.0000000000000000000 ) ) ;
#86 = FACE_OUTER_BOUND ( 'NONE', #54, .T. ) ;
#87 = FACE_BOUND ( 'NONE', #250, .T. ) ;
#88 = MANIFOLD_SOLID_BREP ( 'Rotation1', #121 ) ;
#89 = CYLINDRICAL_SURFACE ( 'NONE', #150, 1.649999999999999911 ) ;
#90 = CARTESIAN_POINT ( 'NONE',  ( 1.039999999999998481, 0.0000000000000000000, 13.59999999999999964 ) ) ;
#91 = FACE_OUTER_BOUND ( 'NONE', #206, .T. ) ;
#92 = DIRECTION ( 'NONE',  ( -0.0000000000000000000, -0.0000000000000000000, 1.000000000000000000 ) ) ;
#93 =( NAMED_UNIT ( * ) PLANE_ANGLE_UNIT ( ) SI_UNIT ( $, .RADIAN. ) );
#94 = CARTESIAN_POINT ( 'NONE',  ( 1.499999999999999112, 0.0000000000000000000, 9.326085502958793683 ) ) ;
#95 = FACE_OUTER_BOUND ( 'NONE', #114, .T. ) ;
#96 = CARTESIAN_POINT ( 'NONE',  ( 0.0000000000000000000, 0.0000000000000000000, 13.59999999999999964 ) ) ;
#97 = CARTESIAN_POINT ( 'NONE',  ( 1.499999999999998224, 0.0000000000000000000, 13.59999999999999964 ) ) ;
#98 = ADVANCED_FACE ( 'NONE', ( #195 ), #159, .F. ) ;
#99 = PRODUCT_DEFINITION_FORMATION_WITH_SPECIFIED_SOURCE ( 'ANY', '', #29, .NOT_KNOWN. ) ;
#100 = EDGE_CURVE ( 'NONE', #179, #32, #222, .T. ) ;
#101 = ORIENTED_EDGE ( 'NONE', *, *, #208, .T. ) ;
#102 = ORIENTED_EDGE ( 'NONE', *, *, #248, .F. ) ;
#103 = ORIENTED_EDGE ( 'NONE', *, *, #79, .T. ) ;
#104 = AXIS2_PLACEMENT_3D ( 'NONE', #197, #49, #17 ) ;
#105 = EDGE_CURVE ( 'NONE', #184, #80, #268, .T. ) ;
#106 = VERTEX_POINT ( 'NONE', #138 ) ;
#107 = LINE ( 'NONE', #209, #119 ) ;
#108 = AXIS2_PLACEMENT_3D ( 'NONE', #236, #61, #163 ) ;
#109 = DIRECTION ( 'NONE',  ( 1.000000000000000000, 0.0000000000000000000, 0.0000000000000000000 ) ) ;
#110 = FILL_AREA_STYLE ('',( #285 ) ) ;
#111 =( GEOMETRIC_REPRESENTATION_CONTEXT ( 3 ) GLOBAL_UNCERTAINTY_ASSIGNED_CONTEXT ( ( #277 ) ) GLOBAL_UNIT_ASSIGNED_CONTEXT ( ( #214, #14, #81 ) ) REPRESENTATION_CONTEXT ( 'NONE', 'WORKASPACE' ) );
#112 = DIRECTION ( 'NONE',  ( 1.000000000000000000, 0.0000000000000000000, 0.0000000000000000000 ) ) ;
#113 = VERTEX_POINT ( 'NONE', #186 ) ;
#114 = EDGE_LOOP ( 'NONE', ( #234, #301, #59 ) ) ;
#115 = ADVANCED_FACE ( 'NONE', ( #282 ), #259, .F. ) ;
#116 = FACE_OUTER_BOUND ( 'NONE', #228, .T. ) ;
#117 = CARTESIAN_POINT ( 'NONE',  ( -1.039999999999998481, 1.273632671113245255E-16, 10.34999999999999964 ) ) ;
#118 = DIRECTION ( 'NONE',  ( 1.000000000000000000, 0.0000000000000000000, 0.0000000000000000000 ) ) ;
#119 = VECTOR ( 'NONE', #310, 1000.000000000000000 ) ;
#120 = DIRECTION ( 'NONE',  ( 1.000000000000000000, 0.0000000000000000000, 0.0000000000000000000 ) ) ;
#121 = CLOSED_SHELL ( 'NONE', ( #98, #320, #178, #300, #115, #232, #60, #253, #71, #152, #271 ) ) ;
#122 = AXIS2_PLACEMENT_3D ( 'NONE', #47, #66, #112 ) ;
#123 = CARTESIAN_POINT ( 'NONE',  ( 0.0000000000000000000, 0.0000000000000000000, 10.34999999999999964 ) ) ;
#124 = CYLINDRICAL_SURFACE ( 'NONE', #143, 1.649999999999999911 ) ;
#125 = EDGE_CURVE ( 'NONE', #155, #179, #107, .T. ) ;
#126 = DIRECTION ( 'NONE',  ( 0.0000000000000000000, 0.0000000000000000000, -1.000000000000000000 ) ) ;
#127 = CIRCLE ( 'NONE', #289, 1.499999999999998224 ) ;
#128 = PRODUCT_DEFINITION_SHAPE ( 'NONE', 'NONE',  #52 ) ;
#129 = AXIS2_PLACEMENT_3D ( 'NONE', #84, #39, #63 ) ;
#130 = ORIENTED_EDGE ( 'NONE', *, *, #156, .T. ) ;
#131 = ORIENTED_EDGE ( 'NONE', *, *, #174, .F. ) ;
#132 = VECTOR ( 'NONE', #13, 1000.000000000000000 ) ;
#133 = AXIS2_PLACEMENT_3D ( 'NONE', #27, #126, #247 ) ;
#134 = SURFACE_STYLE_FILL_AREA ( #110 ) ;
#135 = ORIENTED_EDGE ( 'NONE', *, *, #225, .T. ) ;
#136 = APPLICATION_PROTOCOL_DEFINITION ( 'draft international standard', 'automotive_design', 1998, #37 ) ;
#137 = ORIENTED_EDGE ( 'NONE', *, *, #3, .T. ) ;
#138 = CARTESIAN_POINT ( 'NONE',  ( -1.649999999999999911, 2.020667218593132755E-16, 0.2000000000000005107 ) ) ;
#139 = FACE_OUTER_BOUND ( 'NONE', #58, .T. ) ;
#140 = DIRECTION ( 'NONE',  ( 1.000000000000000000, 0.0000000000000000000, 0.0000000000000000000 ) ) ;
#141 = DIRECTION ( 'NONE',  ( 1.000000000000000000, 0.0000000000000000000, 0.0000000000000000000 ) ) ;
#142 = DIRECTION ( 'NONE',  ( -0.0000000000000000000, -0.0000000000000000000, 1.000000000000000000 ) ) ;
#143 = AXIS2_PLACEMENT_3D ( 'NONE', #314, #237, #85 ) ;
#144 = FACE_OUTER_BOUND ( 'NONE', #78, .T. ) ;
#145 = PRESENTATION_STYLE_ASSIGNMENT (( #194 ) ) ;
#146 = DIRECTION ( 'NONE',  ( -0.0000000000000000000, -0.0000000000000000000, 1.000000000000000000 ) ) ;
#147 = CARTESIAN_POINT ( 'NONE',  ( 0.0000000000000000000, 0.0000000000000000000, 0.0000000000000000000 ) ) ;
#148 = EDGE_CURVE ( 'NONE', #179, #184, #302, .T. ) ;
#149 = CARTESIAN_POINT ( 'NONE',  ( 0.0000000000000000000, 0.0000000000000000000, 10.34999999999999964 ) ) ;
#150 = AXIS2_PLACEMENT_3D ( 'NONE', #69, #267, #26 ) ;
#151 = FACE_BOUND ( 'NONE', #276, .T. ) ;
#152 = ADVANCED_FACE ( 'NONE', ( #86 ), #188, .F. ) ;
#153 = AXIS2_PLACEMENT_3D ( 'NONE', #235, #312, #109 ) ;
#154 = ORIENTED_EDGE ( 'NONE', *, *, #148, .F. ) ;
#155 = VERTEX_POINT ( 'NONE', #284 ) ;
#156 = EDGE_CURVE ( 'NONE', #177, #106, #41, .T. ) ;
#157 = AXIS2_PLACEMENT_3D ( 'NONE', #212, #223, #322 ) ;
#158 =( NAMED_UNIT ( * ) SI_UNIT ( $, .STERADIAN. ) SOLID_ANGLE_UNIT ( ) );
#159 = CONICAL_SURFACE ( 'NONE', #199, 1.039999999999998481, 0.7931916922997266362 ) ;
#160 = ORIENTED_EDGE ( 'NONE', *, *, #125, .F. ) ;
#161 = SURFACE_STYLE_USAGE ( .BOTH. , #38 ) ;
#162 = ORIENTED_EDGE ( 'NONE', *, *, #79, .F. ) ;
#163 = DIRECTION ( 'NONE',  ( 1.000000000000000000, 0.0000000000000000000, 0.0000000000000000000 ) ) ;
#164 = CARTESIAN_POINT ( 'NONE',  ( 0.0000000000000000000, 0.0000000000000000000, 10.34999999999999964 ) ) ;
#165 = PRODUCT_RELATED_PRODUCT_CATEGORY ( 'part', '', ( #29 ) ) ;
#166 = CARTESIAN_POINT ( 'NONE',  ( 0.0000000000000000000, 0.0000000000000000000, 13.59999999999999964 ) ) ;
#167 = LINE ( 'NONE', #94, #77 ) ;
#168 = CARTESIAN_POINT ( 'NONE',  ( 0.0000000000000000000, 0.0000000000000000000, 0.0000000000000000000 ) ) ;
#169 = COLOUR_RGB ( '',0.9686274509803921573, 0.8784313725490195957, 0.5999999999999999778 ) ;
#170 = CARTESIAN_POINT ( 'NONE',  ( 0.0000000000000000000, 0.0000000000000000000, 13.59999999999999964 ) ) ;
#171 = VECTOR ( 'NONE', #298, 1000.000000000000000 ) ;
#172 = CYLINDRICAL_SURFACE ( 'NONE', #122, 1.039999999999998481 ) ;
#173 = CARTESIAN_POINT ( 'NONE',  ( 0.0000000000000000000, 0.0000000000000000000, 9.326085502958793683 ) ) ;
#174 = EDGE_CURVE ( 'NONE', #32, #80, #293, .T. ) ;
#175 =( NAMED_UNIT ( * ) SI_UNIT ( $, .STERADIAN. ) SOLID_ANGLE_UNIT ( ) );
#176 = CARTESIAN_POINT ( 'NONE',  ( -1.039999999999998481, 1.273632671113245255E-16, 9.326085502958793683 ) ) ;
#177 = VERTEX_POINT ( 'NONE', #70 ) ;
#178 = ADVANCED_FACE ( 'NONE', ( #144 ), #291, .T. ) ;
#179 = VERTEX_POINT ( 'NONE', #18 ) ;
#180 = UNCERTAINTY_MEASURE_WITH_UNIT (LENGTH_MEASURE( 1.000000000000000082E-05 ), #295, 'distance_accuracy_value', 'NONE');
#181 = AXIS2_PLACEMENT_3D ( 'NONE', #149, #142, #290 ) ;
#182 = ORIENTED_EDGE ( 'NONE', *, *, #174, .T. ) ;
#183 = CARTESIAN_POINT ( 'NONE',  ( 0.0000000000000000000, 0.0000000000000000000, 0.0000000000000000000 ) ) ;
#184 = VERTEX_POINT ( 'NONE', #117 ) ;
#185 =( GEOMETRIC_REPRESENTATION_CONTEXT ( 3 ) GLOBAL_UNCERTAINTY_ASSIGNED_CONTEXT ( ( #180 ) ) GLOBAL_UNIT_ASSIGNED_CONTEXT ( ( #295, #269, #158 ) ) REPRESENTATION_CONTEXT ( 'NONE', 'WORKASPACE' ) );
#186 = CARTESIAN_POINT ( 'NONE',  ( 1.649999999999999911, 0.0000000000000000000, 0.0000000000000000000 ) ) ;
#187 = DIRECTION ( 'NONE',  ( 1.000000000000000000, 0.0000000000000000000, 0.0000000000000000000 ) ) ;
#188 = CYLINDRICAL_SURFACE ( 'NONE', #153, 1.039999999999998481 ) ;
#189 = ORIENTED_EDGE ( 'NONE', *, *, #248, .T. ) ;
#190 = LINE ( 'NONE', #74, #132 ) ;
#191 = ORIENTED_EDGE ( 'NONE', *, *, #208, .F. ) ;
#192 = DIRECTION ( 'NONE',  ( -0.0000000000000000000, -0.0000000000000000000, 1.000000000000000000 ) ) ;
#193 = CARTESIAN_POINT ( 'NONE',  ( -1.499999999999998224, 1.836970198721028208E-16, 13.59999999999999964 ) ) ;
#194 = SURFACE_STYLE_USAGE ( .BOTH. , #292 ) ;
#195 = FACE_OUTER_BOUND ( 'NONE', #318, .T. ) ;
#196 = DIRECTION ( 'NONE',  ( -1.000000000000000000, 0.0000000000000000000, -0.0000000000000000000 ) ) ;
#197 = CARTESIAN_POINT ( 'NONE',  ( 0.0000000000000000000, 0.0000000000000000000, 0.2000000000000005107 ) ) ;
#198 = CIRCLE ( 'NONE', #181, 1.039999999999998481 ) ;
#199 = AXIS2_PLACEMENT_3D ( 'NONE', #123, #48, #24 ) ;
#200 = EDGE_CURVE ( 'NONE', #286, #207, #44, .T. ) ;
#201 = CONICAL_SURFACE ( 'NONE', #272, 1.039999999999998481, 0.7931916922997266362 ) ;
#202 = ORIENTED_EDGE ( 'NONE', *, *, #53, .T. ) ;
#203 = ORIENTED_EDGE ( 'NONE', *, *, #313, .T. ) ;
#204 = PRESENTATION_LAYER_ASSIGNMENT (  '', '', ( #28 ) ) ;
#205 = VECTOR ( 'NONE', #12, 1000.000000000000000 ) ;
#206 = EDGE_LOOP ( 'NONE', ( #238, #130, #280, #191 ) ) ;
#207 = VERTEX_POINT ( 'NONE', #193 ) ;
#208 = EDGE_CURVE ( 'NONE', #113, #35, #265, .T. ) ;
#209 = CARTESIAN_POINT ( 'NONE',  ( 1.039999999999998481, 0.0000000000000000000, 10.34999999999999964 ) ) ;
#210 = CARTESIAN_POINT ( 'NONE',  ( -1.649999999999999911, 2.020667218593132755E-16, 9.326085502958793683 ) ) ;
#211 = PRESENTATION_STYLE_ASSIGNMENT (( #161 ) ) ;
#212 = CARTESIAN_POINT ( 'NONE',  ( 0.0000000000000000000, 0.0000000000000000000, 9.326085502958793683 ) ) ;
#213 = ORIENTED_EDGE ( 'NONE', *, *, #105, .T. ) ;
#214 =( LENGTH_UNIT ( ) NAMED_UNIT ( * ) SI_UNIT ( .MILLI., .METRE. ) );
#215 = VERTEX_POINT ( 'NONE', #97 ) ;
#216 = DIRECTION ( 'NONE',  ( -0.0000000000000000000, -0.0000000000000000000, 1.000000000000000000 ) ) ;
#217 = DIRECTION ( 'NONE',  ( -0.0000000000000000000, -0.0000000000000000000, 1.000000000000000000 ) ) ;
#218 =( LENGTH_UNIT ( ) NAMED_UNIT ( * ) SI_UNIT ( .MILLI., .METRE. ) );
#219 = CARTESIAN_POINT ( 'NONE',  ( 0.0000000000000000000, 0.0000000000000000000, 0.2000000000000005107 ) ) ;
#220 = DIRECTION ( 'NONE',  ( 1.000000000000000000, 0.0000000000000000000, 0.0000000000000000000 ) ) ;
#221 = CIRCLE ( 'NONE', #263, 1.649999999999999911 ) ;
#222 = LINE ( 'NONE', #294, #252 ) ;
#223 = DIRECTION ( 'NONE',  ( -0.0000000000000000000, -0.0000000000000000000, 1.000000000000000000 ) ) ;
#224 = DIRECTION ( 'NONE',  ( 1.000000000000000000, 0.0000000000000000000, 0.0000000000000000000 ) ) ;
#225 = EDGE_CURVE ( 'NONE', #286, #255, #249, .T. ) ;
#226 = ORIENTED_EDGE ( 'NONE', *, *, #200, .F. ) ;
#227 = STYLED_ITEM ( 'NONE', ( #211 ), #229 ) ;
#228 = EDGE_LOOP ( 'NONE', ( #304, #189, #101, #7 ) ) ;
#229 = ADVANCED_BREP_SHAPE_REPRESENTATION ( 'IF-PI-13.6-3.3', ( #88, #256 ), #185 ) ;
#230 = EDGE_CURVE ( 'NONE', #255, #286, #299, .T. ) ;
#231 = EDGE_LOOP ( 'NONE', ( #5, #266 ) ) ;
#232 = ADVANCED_FACE ( 'NONE', ( #116 ), #124, .T. ) ;
#233 = SHAPE_DEFINITION_REPRESENTATION ( #128, #229 ) ;
#234 = ORIENTED_EDGE ( 'NONE', *, *, #313, .F. ) ;
#235 = CARTESIAN_POINT ( 'NONE',  ( 0.0000000000000000000, 0.0000000000000000000, 9.326085502958793683 ) ) ;
#236 = CARTESIAN_POINT ( 'NONE',  ( 0.0000000000000000000, 0.0000000000000000000, 1.010333609296566254E-16 ) ) ;
#237 = DIRECTION ( 'NONE',  ( -0.0000000000000000000, -0.0000000000000000000, 1.000000000000000000 ) ) ;
#238 = ORIENTED_EDGE ( 'NONE', *, *, #324, .T. ) ;
#239 = PLANE ( 'NONE',  #6 ) ;
#240 = CARTESIAN_POINT ( 'NONE',  ( 0.0000000000000000000, 0.0000000000000000000, 0.2000000000000005107 ) ) ;
#241 = DIRECTION ( 'NONE',  ( 1.000000000000000000, 0.0000000000000000000, 0.0000000000000000000 ) ) ;
#242 = SURFACE_STYLE_FILL_AREA ( #45 ) ;
#243 = FACE_OUTER_BOUND ( 'NONE', #231, .T. ) ;
#244 = DIRECTION ( 'NONE',  ( 1.000000000000000000, 0.0000000000000000000, 0.0000000000000000000 ) ) ;
#245 = CARTESIAN_POINT ( 'NONE',  ( -1.500000000000000222, 1.836970198721030181E-16, 0.2000000000000005107 ) ) ;
#246 = AXIS2_PLACEMENT_3D ( 'NONE', #240, #40, #244 ) ;
#247 = DIRECTION ( 'NONE',  ( -1.000000000000000000, 0.0000000000000000000, -0.0000000000000000000 ) ) ;
#248 = EDGE_CURVE ( 'NONE', #177, #113, #15, .T. ) ;
#249 = CIRCLE ( 'NONE', #104, 1.500000000000000000 ) ;
#250 = EDGE_LOOP ( 'NONE', ( #309, #31 ) ) ;
#251 = ORIENTED_EDGE ( 'NONE', *, *, #56, .T. ) ;
#252 = VECTOR ( 'NONE', #72, 1000.000000000000000 ) ;
#253 = ADVANCED_FACE ( 'NONE', ( #287 ), #43, .T. ) ;
#254 = CIRCLE ( 'NONE', #305, 1.499999999999998224 ) ;
#255 = VERTEX_POINT ( 'NONE', #316 ) ;
#256 = AXIS2_PLACEMENT_3D ( 'NONE', #183, #57, #34 ) ;
#257 = EDGE_CURVE ( 'NONE', #184, #179, #198, .T. ) ;
#258 = ORIENTED_EDGE ( 'NONE', *, *, #200, .T. ) ;
#259 = PLANE ( 'NONE',  #108 ) ;
#260 = DIRECTION ( 'NONE',  ( -0.0000000000000000000, -0.0000000000000000000, 1.000000000000000000 ) ) ;
#261 = DIRECTION ( 'NONE',  ( -0.0000000000000000000, -0.0000000000000000000, 1.000000000000000000 ) ) ;
#262 = DIRECTION ( 'NONE',  ( 1.000000000000000000, 0.0000000000000000000, 0.0000000000000000000 ) ) ;
#263 = AXIS2_PLACEMENT_3D ( 'NONE', #219, #46, #118 ) ;
#264 = CARTESIAN_POINT ( 'NONE',  ( 1.649999999999999911, 0.0000000000000000000, 9.326085502958793683 ) ) ;
#265 = LINE ( 'NONE', #264, #171 ) ;
#266 = ORIENTED_EDGE ( 'NONE', *, *, #21, .T. ) ;
#267 = DIRECTION ( 'NONE',  ( -0.0000000000000000000, -0.0000000000000000000, 1.000000000000000000 ) ) ;
#268 = LINE ( 'NONE', #176, #23 ) ;
#269 =( NAMED_UNIT ( * ) PLANE_ANGLE_UNIT ( ) SI_UNIT ( $, .RADIAN. ) );
#270 = DIRECTION ( 'NONE',  ( 0.0000000000000000000, 0.0000000000000000000, -1.000000000000000000 ) ) ;
#271 = ADVANCED_FACE ( 'NONE', ( #95 ), #201, .F. ) ;
#272 = AXIS2_PLACEMENT_3D ( 'NONE', #164, #260, #220 ) ;
#273 = PRODUCT_DEFINITION_CONTEXT ( 'detailed design', #37, 'design' ) ;
#274 = CIRCLE ( 'NONE', #67, 1.039999999999998481 ) ;
#275 = EDGE_LOOP ( 'NONE', ( #226, #135, #202, #36 ) ) ;
#276 = EDGE_LOOP ( 'NONE', ( #131, #279 ) ) ;
#277 = UNCERTAINTY_MEASURE_WITH_UNIT (LENGTH_MEASURE( 1.000000000000000082E-05 ), #214, 'distance_accuracy_value', 'NONE');
#278 = AXIS2_PLACEMENT_3D ( 'NONE', #147, #216, #187 ) ;
#279 = ORIENTED_EDGE ( 'NONE', *, *, #3, .F. ) ;
#280 = ORIENTED_EDGE ( 'NONE', *, *, #296, .F. ) ;
#281 = CIRCLE ( 'NONE', #246, 1.649999999999999911 ) ;
#282 = FACE_OUTER_BOUND ( 'NONE', #76, .T. ) ;
#283 = CARTESIAN_POINT ( 'NONE',  ( 0.0000000000000000000, 0.0000000000000000000, 0.2000000000000005107 ) ) ;
#284 = CARTESIAN_POINT ( 'NONE',  ( 0.0000000000000000000, 0.0000000000000000000, 9.326085502958793683 ) ) ;
#285 = FILL_AREA_STYLE_COLOUR ( '', #51 ) ;
#286 = VERTEX_POINT ( 'NONE', #245 ) ;
#287 = FACE_OUTER_BOUND ( 'NONE', #275, .T. ) ;
#288 = DIRECTION ( 'NONE',  ( -0.0000000000000000000, -0.0000000000000000000, 1.000000000000000000 ) ) ;
#289 = AXIS2_PLACEMENT_3D ( 'NONE', #96, #73, #224 ) ;
#290 = DIRECTION ( 'NONE',  ( 1.000000000000000000, 0.0000000000000000000, 0.0000000000000000000 ) ) ;
#291 = CYLINDRICAL_SURFACE ( 'NONE', #30, 1.499999999999999112 ) ;
#292 = SURFACE_SIDE_STYLE ('',( #242 ) ) ;
#293 = CIRCLE ( 'NONE', #306, 1.039999999999998481 ) ;
#294 = CARTESIAN_POINT ( 'NONE',  ( 1.039999999999998481, 0.0000000000000000000, 9.326085502958793683 ) ) ;
#295 =( LENGTH_UNIT ( ) NAMED_UNIT ( * ) SI_UNIT ( .MILLI., .METRE. ) );
#296 = EDGE_CURVE ( 'NONE', #35, #106, #281, .T. ) ;
#297 = FACE_OUTER_BOUND ( 'NONE', #307, .T. ) ;
#298 = DIRECTION ( 'NONE',  ( -0.0000000000000000000, -0.0000000000000000000, 1.000000000000000000 ) ) ;
#299 = CIRCLE ( 'NONE', #323, 1.500000000000000000 ) ;
#300 = ADVANCED_FACE ( 'NONE', ( #91 ), #89, .T. ) ;
#301 = ORIENTED_EDGE ( 'NONE', *, *, #125, .T. ) ;
#302 = CIRCLE ( 'NONE', #129, 1.039999999999998481 ) ;
#303 = ORIENTED_EDGE ( 'NONE', *, *, #230, .T. ) ;
#304 = ORIENTED_EDGE ( 'NONE', *, *, #156, .F. ) ;
#305 = AXIS2_PLACEMENT_3D ( 'NONE', #170, #146, #262 ) ;
#306 = AXIS2_PLACEMENT_3D ( 'NONE', #166, #261, #140 ) ;
#307 = EDGE_LOOP ( 'NONE', ( #103, #251 ) ) ;
#308 = APPLICATION_PROTOCOL_DEFINITION ( 'draft international standard', 'automotive_design', 1998, #4 ) ;
#309 = ORIENTED_EDGE ( 'NONE', *, *, #230, .F. ) ;
#310 = DIRECTION ( 'NONE',  ( 0.7125961081319922563, 0.0000000000000000000, 0.7015745054341255837 ) ) ;
#311 = MECHANICAL_DESIGN_GEOMETRIC_PRESENTATION_REPRESENTATION (  '', ( #227 ), #111 ) ;
#312 = DIRECTION ( 'NONE',  ( -0.0000000000000000000, -0.0000000000000000000, 1.000000000000000000 ) ) ;
#313 = EDGE_CURVE ( 'NONE', #155, #184, #190, .T. ) ;
#314 = CARTESIAN_POINT ( 'NONE',  ( 0.0000000000000000000, 0.0000000000000000000, 9.326085502958793683 ) ) ;
#315 = CARTESIAN_POINT ( 'NONE',  ( 0.0000000000000000000, 0.0000000000000000000, 13.59999999999999964 ) ) ;
#316 = CARTESIAN_POINT ( 'NONE',  ( 1.500000000000000000, 0.0000000000000000000, 0.2000000000000005107 ) ) ;
#317 = CARTESIAN_POINT ( 'NONE',  ( -1.499999999999999112, 1.836970198721028948E-16, 9.326085502958793683 ) ) ;
#318 = EDGE_LOOP ( 'NONE', ( #160, #203, #11 ) ) ;
#319 = MECHANICAL_DESIGN_GEOMETRIC_PRESENTATION_REPRESENTATION (  '', ( #28 ), #75 ) ;
#320 = ADVANCED_FACE ( 'NONE', ( #139 ), #172, .F. ) ;
#321 = CARTESIAN_POINT ( 'NONE',  ( -1.039999999999998481, 1.273632671113245255E-16, 13.59999999999999964 ) ) ;
#322 = DIRECTION ( 'NONE',  ( 1.000000000000000000, 0.0000000000000000000, 0.0000000000000000000 ) ) ;
#323 = AXIS2_PLACEMENT_3D ( 'NONE', #283, #192, #62 ) ;
#324 = EDGE_CURVE ( 'NONE', #113, #177, #2, .T. ) ;
ENDSEC;
END-ISO-10303-21;
