ISO-10303-21;
HEADER;
FILE_DESCRIPTION (( 'STEP AP214' ),
    '1' );
FILE_NAME ('IF-PI-2.0-2.03.STEP',
    '2020-06-04T07:50:44',
    ( '' ),
    ( '' ),
    'SwSTEP 2.0',
    'SolidWorks 2020',
    '' );
FILE_SCHEMA (( 'AUTOMOTIVE_DESIGN' ));
ENDSEC;

DATA;
#1 = DIRECTION ( 'NONE',  ( -1.084202172485504927E-16, 1.000000000000000000, -0.0000000000000000000 ) ) ;
#2 = DIRECTION ( 'NONE',  ( -1.084202172485504927E-16, 1.000000000000000000, -0.0000000000000000000 ) ) ;
#3 = AXIS2_PLACEMENT_3D ( 'NONE', #201, #58, #14 ) ;
#4 = VERTEX_POINT ( 'NONE', #36 ) ;
#5 = COLOUR_RGB ( '',0.9686274509803921573, 0.8784313725490195957, 0.5999999999999999778 ) ;
#6 = CARTESIAN_POINT ( 'NONE',  ( 0.7874999999999997558, 1.999999999999999112, 9.644093543285406722E-17 ) ) ;
#7 = ORIENTED_EDGE ( 'NONE', *, *, #202, .T. ) ;
#8 = EDGE_LOOP ( 'NONE', ( #23, #26, #35, #117 ) ) ;
#9 = EDGE_CURVE ( 'NONE', #160, #140, #106, .T. ) ;
#10 = CYLINDRICAL_SURFACE ( 'NONE', #3, 0.7874999999999999778 ) ;
#11 = DIRECTION ( 'NONE',  ( 1.000000000000000000, 1.084202172485504927E-16, 0.0000000000000000000 ) ) ;
#12 = CARTESIAN_POINT ( 'NONE',  ( -0.7875000000000000888, 1.820000000000000062, 0.0000000000000000000 ) ) ;
#13 = ADVANCED_FACE ( 'NONE', ( #131 ), #10, .T. ) ;
#14 = DIRECTION ( 'NONE',  ( -1.000000000000000000, 0.0000000000000000000, 0.0000000000000000000 ) ) ;
#15 = SURFACE_STYLE_FILL_AREA ( #197 ) ;
#16 = PRODUCT_DEFINITION_SHAPE ( 'NONE', 'NONE',  #22 ) ;
#17 = SURFACE_STYLE_USAGE ( .BOTH. , #19 ) ;
#18 = CARTESIAN_POINT ( 'NONE',  ( -0.7875000000000001998, 1.999999999999999112, 0.0000000000000000000 ) ) ;
#19 = SURFACE_SIDE_STYLE ('',( #206 ) ) ;
#20 = VERTEX_POINT ( 'NONE', #12 ) ;
#21 = VECTOR ( 'NONE', #67, 1000.000000000000000 ) ;
#22 = PRODUCT_DEFINITION ( 'UNKNOWN', '', #107, #141 ) ;
#23 = ORIENTED_EDGE ( 'NONE', *, *, #113, .T. ) ;
#24 = VECTOR ( 'NONE', #155, 1000.000000000000000 ) ;
#25 = APPLICATION_PROTOCOL_DEFINITION ( 'draft international standard', 'automotive_design', 1998, #136 ) ;
#26 = ORIENTED_EDGE ( 'NONE', *, *, #9, .T. ) ;
#27 =( GEOMETRIC_REPRESENTATION_CONTEXT ( 3 ) GLOBAL_UNCERTAINTY_ASSIGNED_CONTEXT ( ( #53 ) ) GLOBAL_UNIT_ASSIGNED_CONTEXT ( ( #45, #151, #187 ) ) REPRESENTATION_CONTEXT ( 'NONE', 'WORKASPACE' ) );
#28 =( NAMED_UNIT ( * ) SI_UNIT ( $, .STERADIAN. ) SOLID_ANGLE_UNIT ( ) );
#29 = CYLINDRICAL_SURFACE ( 'NONE', #179, 1.014999999999999902 ) ;
#30 = ADVANCED_FACE ( 'NONE', ( #167 ), #198, .T. ) ;
#31 = DIRECTION ( 'NONE',  ( -1.000000000000000000, -1.084202172485504927E-16, 0.0000000000000000000 ) ) ;
#32 = DIRECTION ( 'NONE',  ( -1.084202172485504927E-16, 1.000000000000000000, -0.0000000000000000000 ) ) ;
#33 = DIRECTION ( 'NONE',  ( -1.000000000000000000, 0.0000000000000000000, 0.0000000000000000000 ) ) ;
#34 = CARTESIAN_POINT ( 'NONE',  ( 1.014999999999999680, 1.820000000000000284, 1.243016501134563341E-16 ) ) ;
#35 = ORIENTED_EDGE ( 'NONE', *, *, #216, .F. ) ;
#36 = CARTESIAN_POINT ( 'NONE',  ( 1.014999999999999458, 1.999999999999999556, 1.243016501134563341E-16 ) ) ;
#37 = PRODUCT_CONTEXT ( 'NONE', #119, 'mechanical' ) ;
#38 = EDGE_LOOP ( 'NONE', ( #68, #191 ) ) ;
#39 = ORIENTED_EDGE ( 'NONE', *, *, #113, .F. ) ;
#40 = AXIS2_PLACEMENT_3D ( 'NONE', #189, #137, #33 ) ;
#41 = CARTESIAN_POINT ( 'NONE',  ( -1.973247953923618809E-16, 1.820000000000000062, 0.0000000000000000000 ) ) ;
#42 = FACE_OUTER_BOUND ( 'NONE', #121, .T. ) ;
#43 = CIRCLE ( 'NONE', #173, 0.7874999999999999778 ) ;
#44 =( NAMED_UNIT ( * ) PLANE_ANGLE_UNIT ( ) SI_UNIT ( $, .RADIAN. ) );
#45 =( LENGTH_UNIT ( ) NAMED_UNIT ( * ) SI_UNIT ( .MILLI., .METRE. ) );
#46 = DIRECTION ( 'NONE',  ( -1.000000000000000000, -2.136358960562570493E-16, 0.0000000000000000000 ) ) ;
#47 = CARTESIAN_POINT ( 'NONE',  ( 0.7875000000000000888, 8.538092108323352348E-17, 9.644093543285409187E-17 ) ) ;
#48 = LINE ( 'NONE', #115, #21 ) ;
#49 = DIRECTION ( 'NONE',  ( -1.000000000000000000, 0.0000000000000000000, 0.0000000000000000000 ) ) ;
#50 = AXIS2_PLACEMENT_3D ( 'NONE', #76, #181, #165 ) ;
#51 = VERTEX_POINT ( 'NONE', #110 ) ;
#52 = ADVANCED_FACE ( 'NONE', ( #125 ), #29, .T. ) ;
#53 = UNCERTAINTY_MEASURE_WITH_UNIT (LENGTH_MEASURE( 1.000000000000000082E-05 ), #45, 'distance_accuracy_value', 'NONE');
#54 = SHAPE_DEFINITION_REPRESENTATION ( #16, #143 ) ;
#55 = VECTOR ( 'NONE', #57, 1000.000000000000000 ) ;
#56 = PLANE ( 'NONE',  #73 ) ;
#57 = DIRECTION ( 'NONE',  ( -1.084202172485504927E-16, 1.000000000000000000, -0.0000000000000000000 ) ) ;
#58 = DIRECTION ( 'NONE',  ( -1.084202172485504927E-16, 1.000000000000000000, -0.0000000000000000000 ) ) ;
#59 = PLANE ( 'NONE',  #213 ) ;
#60 = LINE ( 'NONE', #95, #184 ) ;
#61 = COLOUR_RGB ( '',0.9686274509803921573, 0.8784313725490195957, 0.5999999999999999778 ) ;
#62 = LINE ( 'NONE', #18, #24 ) ;
#63 = DIRECTION ( 'NONE',  ( -1.084202172485504927E-16, 1.000000000000000000, -0.0000000000000000000 ) ) ;
#64 = CARTESIAN_POINT ( 'NONE',  ( -2.168404344971008868E-16, 1.999999999999999112, 0.0000000000000000000 ) ) ;
#65 = CIRCLE ( 'NONE', #50, 0.7874999999999999778 ) ;
#66 = PLANE ( 'NONE',  #200 ) ;
#67 = DIRECTION ( 'NONE',  ( -1.084202172485504927E-16, 1.000000000000000000, -0.0000000000000000000 ) ) ;
#68 = ORIENTED_EDGE ( 'NONE', *, *, #80, .F. ) ;
#69 = AXIS2_PLACEMENT_3D ( 'NONE', #99, #1, #188 ) ;
#70 = EDGE_CURVE ( 'NONE', #4, #177, #150, .T. ) ;
#71 = EDGE_LOOP ( 'NONE', ( #162, #175 ) ) ;
#72 = EDGE_LOOP ( 'NONE', ( #92, #212, #104, #88 ) ) ;
#73 = AXIS2_PLACEMENT_3D ( 'NONE', #93, #164, #11 ) ;
#74 = FACE_BOUND ( 'NONE', #142, .T. ) ;
#75 = CARTESIAN_POINT ( 'NONE',  ( -1.973247953923618809E-16, 1.820000000000000062, 0.0000000000000000000 ) ) ;
#76 = CARTESIAN_POINT ( 'NONE',  ( 0.0000000000000000000, 0.0000000000000000000, 0.0000000000000000000 ) ) ;
#77 = DIRECTION ( 'NONE',  ( -1.000000000000000000, 0.0000000000000000000, 0.0000000000000000000 ) ) ;
#78 = AXIS2_PLACEMENT_3D ( 'NONE', #124, #145, #219 ) ;
#79 =( NAMED_UNIT ( * ) PLANE_ANGLE_UNIT ( ) SI_UNIT ( $, .RADIAN. ) );
#80 = EDGE_CURVE ( 'NONE', #51, #210, #154, .T. ) ;
#81 = APPLICATION_PROTOCOL_DEFINITION ( 'draft international standard', 'automotive_design', 1998, #119 ) ;
#82 = DIRECTION ( 'NONE',  ( -1.084202172485504927E-16, 1.000000000000000000, 0.0000000000000000000 ) ) ;
#83 = STYLED_ITEM ( 'NONE', ( #85 ), #143 ) ;
#84 = AXIS2_PLACEMENT_3D ( 'NONE', #41, #146, #148 ) ;
#85 = PRESENTATION_STYLE_ASSIGNMENT (( #17 ) ) ;
#86 = EDGE_CURVE ( 'NONE', #210, #4, #60, .T. ) ;
#87 = EDGE_LOOP ( 'NONE', ( #176, #158, #208, #118 ) ) ;
#88 = ORIENTED_EDGE ( 'NONE', *, *, #202, .F. ) ;
#89 = EDGE_CURVE ( 'NONE', #160, #194, #65, .T. ) ;
#90 = ORIENTED_EDGE ( 'NONE', *, *, #132, .T. ) ;
#91 = AXIS2_PLACEMENT_3D ( 'NONE', #114, #63, #135 ) ;
#92 = ORIENTED_EDGE ( 'NONE', *, *, #80, .T. ) ;
#93 = CARTESIAN_POINT ( 'NONE',  ( -0.7875000000000000888, 1.820000000000000062, 0.0000000000000000000 ) ) ;
#94 = MANIFOLD_SOLID_BREP ( 'Rotation1', #100 ) ;
#95 = CARTESIAN_POINT ( 'NONE',  ( 1.014999999999999680, 1.999999999999999112, 1.243016501134563341E-16 ) ) ;
#96 = DIRECTION ( 'NONE',  ( -1.000000000000000000, 0.0000000000000000000, 0.0000000000000000000 ) ) ;
#97 =( LENGTH_UNIT ( ) NAMED_UNIT ( * ) SI_UNIT ( .MILLI., .METRE. ) );
#98 = ADVANCED_FACE ( 'NONE', ( #42 ), #59, .T. ) ;
#99 = CARTESIAN_POINT ( 'NONE',  ( -2.168404344971009361E-16, 1.999999999999999556, 0.0000000000000000000 ) ) ;
#100 = CLOSED_SHELL ( 'NONE', ( #52, #30, #98, #13, #128, #139, #182 ) ) ;
#101 = CYLINDRICAL_SURFACE ( 'NONE', #122, 1.014999999999999902 ) ;
#102 = CIRCLE ( 'NONE', #40, 0.7874999999999998668 ) ;
#103 = DIRECTION ( 'NONE',  ( 1.000000000000000000, 0.0000000000000000000, 0.0000000000000000000 ) ) ;
#104 = ORIENTED_EDGE ( 'NONE', *, *, #172, .F. ) ;
#105 = UNCERTAINTY_MEASURE_WITH_UNIT (LENGTH_MEASURE( 1.000000000000000082E-05 ), #129, 'distance_accuracy_value', 'NONE');
#106 = LINE ( 'NONE', #6, #55 ) ;
#107 = PRODUCT_DEFINITION_FORMATION_WITH_SPECIFIED_SOURCE ( 'ANY', '', #199, .NOT_KNOWN. ) ;
#108 = DIRECTION ( 'NONE',  ( 1.084202172485504927E-16, -1.000000000000000000, 0.0000000000000000000 ) ) ;
#109 = PRESENTATION_LAYER_ASSIGNMENT (  '', '', ( #209 ) ) ;
#110 = CARTESIAN_POINT ( 'NONE',  ( -1.015000000000000124, 1.819999999999999840, 0.0000000000000000000 ) ) ;
#111 = SURFACE_STYLE_USAGE ( .BOTH. , #147 ) ;
#112 = DIRECTION ( 'NONE',  ( 1.000000000000000000, 1.084202172485504927E-16, 0.0000000000000000000 ) ) ;
#113 = EDGE_CURVE ( 'NONE', #194, #160, #43, .T. ) ;
#114 = CARTESIAN_POINT ( 'NONE',  ( -1.973247953923618809E-16, 1.820000000000000062, 0.0000000000000000000 ) ) ;
#115 = CARTESIAN_POINT ( 'NONE',  ( -1.015000000000000124, 1.999999999999999112, 0.0000000000000000000 ) ) ;
#116 = FILL_AREA_STYLE_COLOUR ( '', #61 ) ;
#117 = ORIENTED_EDGE ( 'NONE', *, *, #153, .F. ) ;
#118 = ORIENTED_EDGE ( 'NONE', *, *, #193, .F. ) ;
#119 = APPLICATION_CONTEXT ( 'automotive_design' ) ;
#120 = PRODUCT_RELATED_PRODUCT_CATEGORY ( 'part', '', ( #199 ) ) ;
#121 = EDGE_LOOP ( 'NONE', ( #39, #123 ) ) ;
#122 = AXIS2_PLACEMENT_3D ( 'NONE', #64, #2, #49 ) ;
#123 = ORIENTED_EDGE ( 'NONE', *, *, #89, .F. ) ;
#124 = CARTESIAN_POINT ( 'NONE',  ( -2.168404344971008868E-16, 1.999999999999999112, 0.0000000000000000000 ) ) ;
#125 = FACE_OUTER_BOUND ( 'NONE', #72, .T. ) ;
#126 = MECHANICAL_DESIGN_GEOMETRIC_PRESENTATION_REPRESENTATION (  '', ( #209 ), #166 ) ;
#127 = CARTESIAN_POINT ( 'NONE',  ( -2.168404344971008868E-16, 1.999999999999999112, 0.0000000000000000000 ) ) ;
#128 = ADVANCED_FACE ( 'NONE', ( #74, #214 ), #56, .T. ) ;
#129 =( LENGTH_UNIT ( ) NAMED_UNIT ( * ) SI_UNIT ( .MILLI., .METRE. ) );
#130 =( GEOMETRIC_REPRESENTATION_CONTEXT ( 3 ) GLOBAL_UNCERTAINTY_ASSIGNED_CONTEXT ( ( #156 ) ) GLOBAL_UNIT_ASSIGNED_CONTEXT ( ( #97, #79, #133 ) ) REPRESENTATION_CONTEXT ( 'NONE', 'WORKASPACE' ) );
#131 = FACE_OUTER_BOUND ( 'NONE', #87, .T. ) ;
#132 = EDGE_CURVE ( 'NONE', #210, #51, #134, .T. ) ;
#133 =( NAMED_UNIT ( * ) SI_UNIT ( $, .STERADIAN. ) SOLID_ANGLE_UNIT ( ) );
#134 = CIRCLE ( 'NONE', #215, 1.014999999999999902 ) ;
#135 = DIRECTION ( 'NONE',  ( -1.000000000000000000, 0.0000000000000000000, 0.0000000000000000000 ) ) ;
#136 = APPLICATION_CONTEXT ( 'automotive_design' ) ;
#137 = DIRECTION ( 'NONE',  ( -1.084202172485504927E-16, 1.000000000000000000, -0.0000000000000000000 ) ) ;
#138 = ORIENTED_EDGE ( 'NONE', *, *, #86, .F. ) ;
#139 = ADVANCED_FACE ( 'NONE', ( #220 ), #101, .T. ) ;
#140 = VERTEX_POINT ( 'NONE', #205 ) ;
#141 = PRODUCT_DEFINITION_CONTEXT ( 'detailed design', #136, 'design' ) ;
#142 = EDGE_LOOP ( 'NONE', ( #161, #211 ) ) ;
#143 = ADVANCED_BREP_SHAPE_REPRESENTATION ( 'IF-PI-2.0-2.03', ( #94, #207 ), #27 ) ;
#144 = AXIS2_PLACEMENT_3D ( 'NONE', #183, #168, #96 ) ;
#145 = DIRECTION ( 'NONE',  ( -1.084202172485504927E-16, 1.000000000000000000, -0.0000000000000000000 ) ) ;
#146 = DIRECTION ( 'NONE',  ( -1.084202172485504927E-16, 1.000000000000000000, -0.0000000000000000000 ) ) ;
#147 = SURFACE_SIDE_STYLE ('',( #15 ) ) ;
#148 = DIRECTION ( 'NONE',  ( -1.000000000000000000, -2.136358960562570493E-16, 0.0000000000000000000 ) ) ;
#149 = CARTESIAN_POINT ( 'NONE',  ( -1.014999999999999902, 1.999999999999999556, 0.0000000000000000000 ) ) ;
#150 = CIRCLE ( 'NONE', #144, 1.014999999999999680 ) ;
#151 =( NAMED_UNIT ( * ) PLANE_ANGLE_UNIT ( ) SI_UNIT ( $, .RADIAN. ) );
#152 = CARTESIAN_POINT ( 'NONE',  ( -0.7874999999999999778, -8.538092108323351116E-17, 0.0000000000000000000 ) ) ;
#153 = EDGE_CURVE ( 'NONE', #194, #20, #62, .T. ) ;
#154 = CIRCLE ( 'NONE', #84, 1.014999999999999902 ) ;
#155 = DIRECTION ( 'NONE',  ( -1.084202172485504927E-16, 1.000000000000000000, -0.0000000000000000000 ) ) ;
#156 = UNCERTAINTY_MEASURE_WITH_UNIT (LENGTH_MEASURE( 1.000000000000000082E-05 ), #97, 'distance_accuracy_value', 'NONE');
#157 = CARTESIAN_POINT ( 'NONE',  ( 0.0000000000000000000, 0.0000000000000000000, 0.0000000000000000000 ) ) ;
#158 = ORIENTED_EDGE ( 'NONE', *, *, #89, .T. ) ;
#159 = PRESENTATION_LAYER_ASSIGNMENT (  '', '', ( #83 ) ) ;
#160 = VERTEX_POINT ( 'NONE', #47 ) ;
#161 = ORIENTED_EDGE ( 'NONE', *, *, #216, .T. ) ;
#162 = ORIENTED_EDGE ( 'NONE', *, *, #172, .T. ) ;
#163 = CARTESIAN_POINT ( 'NONE',  ( 5.995645792789733502E-34, -5.530007174810278803E-18, 0.0000000000000000000 ) ) ;
#164 = DIRECTION ( 'NONE',  ( 1.084202172485504927E-16, -1.000000000000000000, 0.0000000000000000000 ) ) ;
#165 = DIRECTION ( 'NONE',  ( -1.000000000000000000, -1.084202172485504927E-16, 0.0000000000000000000 ) ) ;
#166 =( GEOMETRIC_REPRESENTATION_CONTEXT ( 3 ) GLOBAL_UNCERTAINTY_ASSIGNED_CONTEXT ( ( #105 ) ) GLOBAL_UNIT_ASSIGNED_CONTEXT ( ( #129, #44, #28 ) ) REPRESENTATION_CONTEXT ( 'NONE', 'WORKASPACE' ) );
#167 = FACE_OUTER_BOUND ( 'NONE', #8, .T. ) ;
#168 = DIRECTION ( 'NONE',  ( -1.084202172485504927E-16, 1.000000000000000000, -0.0000000000000000000 ) ) ;
#169 = CARTESIAN_POINT ( 'NONE',  ( -1.014999999999999902, 1.999999999999999112, 0.0000000000000000000 ) ) ;
#170 = MECHANICAL_DESIGN_GEOMETRIC_PRESENTATION_REPRESENTATION (  '', ( #83 ), #130 ) ;
#171 = FILL_AREA_STYLE ('',( #116 ) ) ;
#172 = EDGE_CURVE ( 'NONE', #177, #4, #196, .T. ) ;
#173 = AXIS2_PLACEMENT_3D ( 'NONE', #185, #32, #31 ) ;
#174 = ORIENTED_EDGE ( 'NONE', *, *, #70, .F. ) ;
#175 = ORIENTED_EDGE ( 'NONE', *, *, #70, .T. ) ;
#176 = ORIENTED_EDGE ( 'NONE', *, *, #9, .F. ) ;
#177 = VERTEX_POINT ( 'NONE', #149 ) ;
#178 = CIRCLE ( 'NONE', #91, 0.7874999999999998668 ) ;
#179 = AXIS2_PLACEMENT_3D ( 'NONE', #127, #195, #77 ) ;
#180 = FILL_AREA_STYLE_COLOUR ( '', #5 ) ;
#181 = DIRECTION ( 'NONE',  ( -1.084202172485504927E-16, 1.000000000000000000, -0.0000000000000000000 ) ) ;
#182 = ADVANCED_FACE ( 'NONE', ( #204 ), #66, .T. ) ;
#183 = CARTESIAN_POINT ( 'NONE',  ( -2.168404344971009361E-16, 1.999999999999999556, 0.0000000000000000000 ) ) ;
#184 = VECTOR ( 'NONE', #218, 1000.000000000000000 ) ;
#185 = CARTESIAN_POINT ( 'NONE',  ( 0.0000000000000000000, 0.0000000000000000000, 0.0000000000000000000 ) ) ;
#186 = PRESENTATION_STYLE_ASSIGNMENT (( #111 ) ) ;
#187 =( NAMED_UNIT ( * ) SI_UNIT ( $, .STERADIAN. ) SOLID_ANGLE_UNIT ( ) );
#188 = DIRECTION ( 'NONE',  ( -1.000000000000000000, 0.0000000000000000000, 0.0000000000000000000 ) ) ;
#189 = CARTESIAN_POINT ( 'NONE',  ( -1.973247953923618809E-16, 1.820000000000000062, 0.0000000000000000000 ) ) ;
#190 = EDGE_LOOP ( 'NONE', ( #138, #90, #7, #174 ) ) ;
#191 = ORIENTED_EDGE ( 'NONE', *, *, #132, .F. ) ;
#192 = DIRECTION ( 'NONE',  ( 0.0000000000000000000, 0.0000000000000000000, 1.000000000000000000 ) ) ;
#193 = EDGE_CURVE ( 'NONE', #140, #20, #178, .T. ) ;
#194 = VERTEX_POINT ( 'NONE', #152 ) ;
#195 = DIRECTION ( 'NONE',  ( -1.084202172485504927E-16, 1.000000000000000000, -0.0000000000000000000 ) ) ;
#196 = CIRCLE ( 'NONE', #69, 1.014999999999999680 ) ;
#197 = FILL_AREA_STYLE ('',( #180 ) ) ;
#198 = CYLINDRICAL_SURFACE ( 'NONE', #78, 0.7874999999999999778 ) ;
#199 = PRODUCT ( 'IF-PI-2.0-2.03', 'IF-PI-2.0-2.03', '', ( #37 ) ) ;
#200 = AXIS2_PLACEMENT_3D ( 'NONE', #169, #82, #203 ) ;
#201 = CARTESIAN_POINT ( 'NONE',  ( -2.168404344971008868E-16, 1.999999999999999112, 0.0000000000000000000 ) ) ;
#202 = EDGE_CURVE ( 'NONE', #51, #177, #48, .T. ) ;
#203 = DIRECTION ( 'NONE',  ( -1.000000000000000000, -1.084202172485504927E-16, 0.0000000000000000000 ) ) ;
#204 = FACE_OUTER_BOUND ( 'NONE', #71, .T. ) ;
#205 = CARTESIAN_POINT ( 'NONE',  ( 0.7874999999999996447, 1.820000000000000062, 9.644093543285405490E-17 ) ) ;
#206 = SURFACE_STYLE_FILL_AREA ( #171 ) ;
#207 = AXIS2_PLACEMENT_3D ( 'NONE', #157, #192, #103 ) ;
#208 = ORIENTED_EDGE ( 'NONE', *, *, #153, .T. ) ;
#209 = STYLED_ITEM ( 'NONE', ( #186 ), #94 ) ;
#210 = VERTEX_POINT ( 'NONE', #34 ) ;
#211 = ORIENTED_EDGE ( 'NONE', *, *, #193, .T. ) ;
#212 = ORIENTED_EDGE ( 'NONE', *, *, #86, .T. ) ;
#213 = AXIS2_PLACEMENT_3D ( 'NONE', #163, #108, #112 ) ;
#214 = FACE_OUTER_BOUND ( 'NONE', #38, .T. ) ;
#215 = AXIS2_PLACEMENT_3D ( 'NONE', #75, #217, #46 ) ;
#216 = EDGE_CURVE ( 'NONE', #20, #140, #102, .T. ) ;
#217 = DIRECTION ( 'NONE',  ( -1.084202172485504927E-16, 1.000000000000000000, -0.0000000000000000000 ) ) ;
#218 = DIRECTION ( 'NONE',  ( -1.084202172485504927E-16, 1.000000000000000000, -0.0000000000000000000 ) ) ;
#219 = DIRECTION ( 'NONE',  ( -1.000000000000000000, 0.0000000000000000000, 0.0000000000000000000 ) ) ;
#220 = FACE_OUTER_BOUND ( 'NONE', #190, .T. ) ;
ENDSEC;
END-ISO-10303-21;
