ISO-10303-21;
HEADER;
FILE_DESCRIPTION (( 'STEP AP214' ),
    '1' );
FILE_NAME ('UEBK-12127.STEP',
    '2016-05-19T15:19:45',
    ( '' ),
    ( '' ),
    'SwSTEP 2.0',
    'SolidWorks 2016',
    '' );
FILE_SCHEMA (( 'AUTOMOTIVE_DESIGN' ));
ENDSEC;

DATA;
#1 = DIRECTION ( 'NONE',  ( 0.0000000000000000000, -1.000000000000000000, 0.0000000000000000000 ) ) ;
#2 = EDGE_CURVE ( 'NONE', #165, #140, #35, .T. ) ;
#3 = CARTESIAN_POINT ( 'NONE',  ( 8.000000000000000000, 4.898587196589412800E-016, 0.0000000000000000000 ) ) ;
#4 = AXIS2_PLACEMENT_3D ( 'NONE', #259, #261, #226 ) ;
#5 = ORIENTED_EDGE ( 'NONE', *, *, #355, .F. ) ;
#6 = DIRECTION ( 'NONE',  ( 1.000000000000000000, 6.123233995736766000E-017, -0.0000000000000000000 ) ) ;
#7 = EDGE_LOOP ( 'NONE', ( #222, #221 ) ) ;
#8 = CARTESIAN_POINT ( 'NONE',  ( 0.0000000000000000000, 0.0000000000000000000, 0.0000000000000000000 ) ) ;
#9 = SPHERICAL_SURFACE ( 'NONE', #61, 0.5100000000000000100 ) ;
#10 = CARTESIAN_POINT ( 'NONE',  ( 0.1799999999999996000, 1.102182119232612100E-017, 0.0000000000000000000 ) ) ;
#11 = ORIENTED_EDGE ( 'NONE', *, *, #316, .F. ) ;
#12 = CARTESIAN_POINT ( 'NONE',  ( 0.0000000000000000000, 0.0000000000000000000, 0.0000000000000000000 ) ) ;
#13 = DIRECTION ( 'NONE',  ( 1.000000000000000000, 0.0000000000000000000, 0.0000000000000000000 ) ) ;
#14 = AXIS2_PLACEMENT_3D ( 'NONE', #110, #219, #53 ) ;
#15 = DIRECTION ( 'NONE',  ( 0.0000000000000000000, -1.000000000000000000, 0.0000000000000000000 ) ) ;
#16 = FACE_OUTER_BOUND ( 'NONE', #7, .T. ) ;
#17 = ORIENTED_EDGE ( 'NONE', *, *, #217, .T. ) ;
#18 = AXIS2_PLACEMENT_3D ( 'NONE', #3, #130, #324 ) ;
#19 = CARTESIAN_POINT ( 'NONE',  ( 6.215082505672816700E-017, -1.014999999999999900, 1.243016501134563300E-016 ) ) ;
#20 = SPHERICAL_SURFACE ( 'NONE', #81, 0.5100000000000000100 ) ;
#21 = CARTESIAN_POINT ( 'NONE',  ( 7.490000000000000200, 4.586302262806838100E-016, 0.0000000000000000000 ) ) ;
#22 = CIRCLE ( 'NONE', #286, 0.7850000000000005900 ) ;
#23 = EDGE_CURVE ( 'NONE', #75, #210, #25, .T. ) ;
#24 = CARTESIAN_POINT ( 'NONE',  ( 6.000000000000000000, 3.673940397442059400E-016, 0.0000000000000000000 ) ) ;
#25 = LINE ( 'NONE', #58, #319 ) ;
#26 = DIRECTION ( 'NONE',  ( 0.0000000000000000000, -1.000000000000000000, 0.0000000000000000000 ) ) ;
#27 = EDGE_LOOP ( 'NONE', ( #298, #152 ) ) ;
#28 = AXIS2_PLACEMENT_3D ( 'NONE', #208, #244, #239 ) ;
#29 = CARTESIAN_POINT ( 'NONE',  ( 5.799999999999999800, 0.7850000000000011400, 0.0000000000000000000 ) ) ;
#30 = UNCERTAINTY_MEASURE_WITH_UNIT (LENGTH_MEASURE( 1.000000000000000100E-005 ), #91, 'distance_accuracy_value', 'NONE');
#31 = CARTESIAN_POINT ( 'NONE',  ( 0.1799999999999995500, 1.014999999999999900, 0.0000000000000000000 ) ) ;
#32 = VERTEX_POINT ( 'NONE', #169 ) ;
#33 = AXIS2_PLACEMENT_3D ( 'NONE', #121, #229, #258 ) ;
#34 = UNCERTAINTY_MEASURE_WITH_UNIT (LENGTH_MEASURE( 1.000000000000000100E-005 ), #45, 'distance_accuracy_value', 'NONE');
#35 = CIRCLE ( 'NONE', #236, 0.7850000000000009200 ) ;
#36 = ADVANCED_FACE ( 'NONE', ( #99 ), #326, .T. ) ;
#37 = EDGE_LOOP ( 'NONE', ( #218, #136 ) ) ;
#38 = DIRECTION ( 'NONE',  ( -0.7071067811865510100, 0.7071067811865441300, 8.659560562354890900E-017 ) ) ;
#39 = EDGE_CURVE ( 'NONE', #335, #276, #80, .T. ) ;
#40 = CARTESIAN_POINT ( 'NONE',  ( 0.1799999999999996600, -1.014999999999999900, 1.243016501134563300E-016 ) ) ;
#41 = DIRECTION ( 'NONE',  ( 0.0000000000000000000, -1.000000000000000000, 0.0000000000000000000 ) ) ;
#42 = PRESENTATION_STYLE_ASSIGNMENT (( #195 ) ) ;
#43 = CIRCLE ( 'NONE', #28, 1.014999999999999900 ) ;
#44 = CARTESIAN_POINT ( 'NONE',  ( 8.000000000000000000, 4.898587196589412800E-016, 0.0000000000000000000 ) ) ;
#45 =( LENGTH_UNIT ( ) NAMED_UNIT ( * ) SI_UNIT ( .MILLI., .METRE. ) );
#46 = MECHANICAL_DESIGN_GEOMETRIC_PRESENTATION_REPRESENTATION (  '', ( #338 ), #66 ) ;
#47 = CYLINDRICAL_SURFACE ( 'NONE', #18, 1.014999999999999900 ) ;
#48 =( NAMED_UNIT ( * ) SI_UNIT ( $, .STERADIAN. ) SOLID_ANGLE_UNIT ( ) );
#49 = EDGE_CURVE ( 'NONE', #164, #210, #357, .T. ) ;
#50 = VECTOR ( 'NONE', #149, 1000.000000000000000 ) ;
#51 = LINE ( 'NONE', #315, #265 ) ;
#52 = ORIENTED_EDGE ( 'NONE', *, *, #295, .T. ) ;
#53 = DIRECTION ( 'NONE',  ( 0.0000000000000000000, -1.000000000000000000, 0.0000000000000000000 ) ) ;
#54 = PRODUCT_DEFINITION ( 'UNKNOWN', '', #162, #266 ) ;
#55 = EDGE_CURVE ( 'NONE', #168, #131, #235, .T. ) ;
#56 = VERTEX_POINT ( 'NONE', #197 ) ;
#57 = DIRECTION ( 'NONE',  ( 0.0000000000000000000, 1.000000000000000000, 0.0000000000000000000 ) ) ;
#58 = CARTESIAN_POINT ( 'NONE',  ( 8.000000000000000000, -1.014999999999999500, 1.243016501134563300E-016 ) ) ;
#59 = EDGE_LOOP ( 'NONE', ( #337, #5 ) ) ;
#60 = VERTEX_POINT ( 'NONE', #88 ) ;
#61 = AXIS2_PLACEMENT_3D ( 'NONE', #133, #302, #213 ) ;
#62 = DIRECTION ( 'NONE',  ( 0.0000000000000000000, 1.000000000000000000, 0.0000000000000000000 ) ) ;
#63 = CARTESIAN_POINT ( 'NONE',  ( 8.000000000000000000, 4.898587196589412800E-016, 0.0000000000000000000 ) ) ;
#64 = FACE_OUTER_BOUND ( 'NONE', #343, .T. ) ;
#65 = ORIENTED_EDGE ( 'NONE', *, *, #201, .T. ) ;
#66 =( GEOMETRIC_REPRESENTATION_CONTEXT ( 3 ) GLOBAL_UNCERTAINTY_ASSIGNED_CONTEXT ( ( #251 ) ) GLOBAL_UNIT_ASSIGNED_CONTEXT ( ( #301, #215, #48 ) ) REPRESENTATION_CONTEXT ( 'NONE', 'WORKASPACE' ) );
#67 = ADVANCED_FACE ( 'NONE', ( #364 ), #256, .F. ) ;
#68 = ORIENTED_EDGE ( 'NONE', *, *, #134, .T. ) ;
#69 = DIRECTION ( 'NONE',  ( 0.0000000000000000000, 1.000000000000000000, 0.0000000000000000000 ) ) ;
#70 = ADVANCED_FACE ( 'NONE', ( #253, #16 ), #284, .F. ) ;
#71 = CYLINDRICAL_SURFACE ( 'NONE', #101, 0.7850000000000009200 ) ;
#72 = ADVANCED_FACE ( 'NONE', ( #87 ), #106, .T. ) ;
#73 = PRODUCT_RELATED_PRODUCT_CATEGORY ( 'part', '', ( #122 ) ) ;
#74 = DIRECTION ( 'NONE',  ( 1.000000000000000000, 6.123233995736766000E-017, -0.0000000000000000000 ) ) ;
#75 = VERTEX_POINT ( 'NONE', #19 ) ;
#76 = PLANE ( 'NONE',  #350 ) ;
#77 = EDGE_CURVE ( 'NONE', #276, #335, #342, .T. ) ;
#78 = DIRECTION ( 'NONE',  ( 1.000000000000000000, 6.123233995736766000E-017, -0.0000000000000000000 ) ) ;
#79 = DIRECTION ( 'NONE',  ( 0.0000000000000000000, 1.000000000000000000, 0.0000000000000000000 ) ) ;
#80 = CIRCLE ( 'NONE', #182, 0.5100000000000007900 ) ;
#81 = AXIS2_PLACEMENT_3D ( 'NONE', #248, #82, #15 ) ;
#82 = DIRECTION ( 'NONE',  ( 0.0000000000000000000, 0.0000000000000000000, -1.000000000000000000 ) ) ;
#83 = ORIENTED_EDGE ( 'NONE', *, *, #132, .F. ) ;
#84 = LINE ( 'NONE', #306, #129 ) ;
#85 = DIRECTION ( 'NONE',  ( 1.000000000000000000, 6.123233995736766000E-017, -0.0000000000000000000 ) ) ;
#86 = AXIS2_PLACEMENT_3D ( 'NONE', #313, #171, #26 ) ;
#87 = FACE_OUTER_BOUND ( 'NONE', #254, .T. ) ;
#88 = CARTESIAN_POINT ( 'NONE',  ( 8.000000000000000000, -1.606625838323614000E-016, 0.0000000000000000000 ) ) ;
#89 = DIRECTION ( 'NONE',  ( 0.0000000000000000000, 1.000000000000000000, 0.0000000000000000000 ) ) ;
#90 = CIRCLE ( 'NONE', #167, 1.014999999999999900 ) ;
#91 =( LENGTH_UNIT ( ) NAMED_UNIT ( * ) SI_UNIT ( .MILLI., .METRE. ) );
#92 = CARTESIAN_POINT ( 'NONE',  ( 0.1800000000000001000, -1.014999999999999900, 0.0000000000000000000 ) ) ;
#93 = ORIENTED_EDGE ( 'NONE', *, *, #225, .F. ) ;
#94 = CIRCLE ( 'NONE', #308, 0.5100000000000000100 ) ;
#95 = EDGE_CURVE ( 'NONE', #56, #140, #51, .T. ) ;
#96 = DIRECTION ( 'NONE',  ( 1.000000000000000000, 6.123233995736766000E-017, -0.0000000000000000000 ) ) ;
#97 = CARTESIAN_POINT ( 'NONE',  ( 6.000000000000000000, 0.5850000000000026300, 8.388830574159389100E-017 ) ) ;
#98 = LINE ( 'NONE', #327, #161 ) ;
#99 = FACE_OUTER_BOUND ( 'NONE', #179, .T. ) ;
#100 = MANIFOLD_SOLID_BREP ( 'Fase1', #188 ) ;
#101 = AXIS2_PLACEMENT_3D ( 'NONE', #268, #243, #69 ) ;
#102 = VERTEX_POINT ( 'NONE', #118 ) ;
#103 = CARTESIAN_POINT ( 'NONE',  ( 6.000000000000000000, 0.5850000000000026300, 7.164183775012043500E-017 ) ) ;
#104 = ORIENTED_EDGE ( 'NONE', *, *, #190, .T. ) ;
#105 = CARTESIAN_POINT ( 'NONE',  ( 5.799999999999999800, 3.551475717527323300E-016, 0.0000000000000000000 ) ) ;
#106 = CONICAL_SURFACE ( 'NONE', #274, 0.5850000000000023000, 0.7853981633974433900 ) ;
#107 = SURFACE_STYLE_USAGE ( .BOTH. , #183 ) ;
#108 = DIRECTION ( 'NONE',  ( 1.000000000000000000, 6.123233995736766000E-017, -0.0000000000000000000 ) ) ;
#109 = SURFACE_STYLE_FILL_AREA ( #336 ) ;
#110 = CARTESIAN_POINT ( 'NONE',  ( 6.000000000000000000, 3.673940397442059400E-016, 0.0000000000000000000 ) ) ;
#111 = DIRECTION ( 'NONE',  ( 7.498798913309288000E-033, -1.224646799147353200E-016, -1.000000000000000000 ) ) ;
#112 = ORIENTED_EDGE ( 'NONE', *, *, #282, .T. ) ;
#113 = ORIENTED_EDGE ( 'NONE', *, *, #49, .F. ) ;
#114 = EDGE_CURVE ( 'NONE', #102, #32, #193, .T. ) ;
#115 = ORIENTED_EDGE ( 'NONE', *, *, #175, .T. ) ;
#116 = APPLICATION_PROTOCOL_DEFINITION ( 'draft international standard', 'automotive_design', 1998, #223 ) ;
#117 = EDGE_CURVE ( 'NONE', #168, #165, #203, .T. ) ;
#118 = CARTESIAN_POINT ( 'NONE',  ( 6.000000000000000000, 0.5100000000000014500, 0.0000000000000000000 ) ) ;
#119 = PRESENTATION_LAYER_ASSIGNMENT (  '', '', ( #192 ) ) ;
#120 = ORIENTED_EDGE ( 'NONE', *, *, #142, .T. ) ;
#121 = CARTESIAN_POINT ( 'NONE',  ( -3.107541252836408400E-017, -1.902820224252231700E-033, 0.0000000000000000000 ) ) ;
#122 = PRODUCT ( 'UEBK-12127', 'UEBK-12127', '', ( #367 ) ) ;
#123 = FACE_OUTER_BOUND ( 'NONE', #289, .T. ) ;
#124 = PRESENTATION_LAYER_ASSIGNMENT (  '', '', ( #338 ) ) ;
#125 = CIRCLE ( 'NONE', #334, 0.7850000000000009200 ) ;
#126 = CARTESIAN_POINT ( 'NONE',  ( 0.1799999999999996600, -0.7850000000000005900, 9.613477373306733400E-017 ) ) ;
#127 = EDGE_LOOP ( 'NONE', ( #300, #260, #376, #314 ) ) ;
#128 = DIRECTION ( 'NONE',  ( -6.123233995736766000E-017, 1.000000000000000000, 0.0000000000000000000 ) ) ;
#129 = VECTOR ( 'NONE', #363, 1000.000000000000000 ) ;
#130 = DIRECTION ( 'NONE',  ( 1.000000000000000000, 6.123233995736766000E-017, -0.0000000000000000000 ) ) ;
#131 = VERTEX_POINT ( 'NONE', #97 ) ;
#132 = EDGE_CURVE ( 'NONE', #131, #168, #199, .T. ) ;
#133 = CARTESIAN_POINT ( 'NONE',  ( 7.490000000000000200, -1.606625838323614000E-016, 0.0000000000000000000 ) ) ;
#134 = EDGE_CURVE ( 'NONE', #173, #75, #312, .T. ) ;
#135 =( NAMED_UNIT ( * ) PLANE_ANGLE_UNIT ( ) SI_UNIT ( $, .RADIAN. ) );
#136 = ORIENTED_EDGE ( 'NONE', *, *, #190, .F. ) ;
#137 = DIRECTION ( 'NONE',  ( -6.905746321563716700E-017, 1.000000000000000000, 0.0000000000000000000 ) ) ;
#138 = AXIS2_PLACEMENT_3D ( 'NONE', #180, #160, #159 ) ;
#139 =( NAMED_UNIT ( * ) SI_UNIT ( $, .STERADIAN. ) SOLID_ANGLE_UNIT ( ) );
#140 = VERTEX_POINT ( 'NONE', #29 ) ;
#141 = PRESENTATION_STYLE_ASSIGNMENT (( #107 ) ) ;
#142 = EDGE_CURVE ( 'NONE', #140, #165, #125, .T. ) ;
#143 = FILL_AREA_STYLE ('',( #285 ) ) ;
#144 = ORIENTED_EDGE ( 'NONE', *, *, #305, .F. ) ;
#145 = DIRECTION ( 'NONE',  ( 1.000000000000000000, 6.123233995736766000E-017, -0.0000000000000000000 ) ) ;
#146 = DIRECTION ( 'NONE',  ( -1.000000000000000000, -6.123233995736766000E-017, 0.0000000000000000000 ) ) ;
#147 = ORIENTED_EDGE ( 'NONE', *, *, #114, .T. ) ;
#148 = ORIENTED_EDGE ( 'NONE', *, *, #175, .F. ) ;
#149 = DIRECTION ( 'NONE',  ( -0.7071067811865510100, -0.7071067811865441300, 0.0000000000000000000 ) ) ;
#150 = CARTESIAN_POINT ( 'NONE',  ( -6.215082505672816700E-017, 1.014999999999999900, 0.0000000000000000000 ) ) ;
#151 = FACE_OUTER_BOUND ( 'NONE', #353, .T. ) ;
#152 = ORIENTED_EDGE ( 'NONE', *, *, #132, .T. ) ;
#153 = LINE ( 'NONE', #329, #220 ) ;
#154 = AXIS2_PLACEMENT_3D ( 'NONE', #181, #204, #356 ) ;
#155 = CARTESIAN_POINT ( 'NONE',  ( 6.000000000000000000, -0.7850000000000010300, 0.0000000000000000000 ) ) ;
#156 = CARTESIAN_POINT ( 'NONE',  ( 6.000000000000000000, -0.5850000000000019600, 0.0000000000000000000 ) ) ;
#157 = ORIENTED_EDGE ( 'NONE', *, *, #142, .F. ) ;
#158 = EDGE_LOOP ( 'NONE', ( #147, #196, #369, #93 ) ) ;
#159 = DIRECTION ( 'NONE',  ( 0.0000000000000000000, 1.000000000000000000, 0.0000000000000000000 ) ) ;
#160 = DIRECTION ( 'NONE',  ( 1.000000000000000000, 6.123233995736766000E-017, -0.0000000000000000000 ) ) ;
#161 = VECTOR ( 'NONE', #6, 1000.000000000000000 ) ;
#162 = PRODUCT_DEFINITION_FORMATION_WITH_SPECIFIED_SOURCE ( 'ANY', '', #122, .NOT_KNOWN. ) ;
#163 = DIRECTION ( 'NONE',  ( 1.000000000000000000, 0.0000000000000000000, 0.0000000000000000000 ) ) ;
#164 = VERTEX_POINT ( 'NONE', #31 ) ;
#165 = VERTEX_POINT ( 'NONE', #374 ) ;
#166 = AXIS2_PLACEMENT_3D ( 'NONE', #12, #333, #163 ) ;
#167 = AXIS2_PLACEMENT_3D ( 'NONE', #186, #78, #304 ) ;
#168 = VERTEX_POINT ( 'NONE', #156 ) ;
#169 = CARTESIAN_POINT ( 'NONE',  ( 6.000000000000000000, -0.5100000000000007900, 6.245698675651515900E-017 ) ) ;
#170 = AXIS2_PLACEMENT_3D ( 'NONE', #214, #111, #362 ) ;
#171 = DIRECTION ( 'NONE',  ( 1.000000000000000000, 6.123233995736766000E-017, -0.0000000000000000000 ) ) ;
#172 = EDGE_LOOP ( 'NONE', ( #309, #320, #331 ) ) ;
#173 = VERTEX_POINT ( 'NONE', #150 ) ;
#174 = CARTESIAN_POINT ( 'NONE',  ( 7.490000000000000200, 4.586302262806838100E-016, 0.0000000000000000000 ) ) ;
#175 = EDGE_CURVE ( 'NONE', #131, #140, #264, .T. ) ;
#176 =( NAMED_UNIT ( * ) PLANE_ANGLE_UNIT ( ) SI_UNIT ( $, .RADIAN. ) );
#177 = ADVANCED_FACE ( 'NONE', ( #330 ), #278, .T. ) ;
#178 = EDGE_LOOP ( 'NONE', ( #242, #373 ) ) ;
#179 = EDGE_LOOP ( 'NONE', ( #68, #366, #113, #11 ) ) ;
#180 = CARTESIAN_POINT ( 'NONE',  ( 8.000000000000000000, 4.898587196589412800E-016, 0.0000000000000000000 ) ) ;
#181 = CARTESIAN_POINT ( 'NONE',  ( 0.1799999999999996000, 1.102182119232612100E-017, 0.0000000000000000000 ) ) ;
#182 = AXIS2_PLACEMENT_3D ( 'NONE', #174, #85, #62 ) ;
#183 = SURFACE_SIDE_STYLE ('',( #109 ) ) ;
#184 = FACE_OUTER_BOUND ( 'NONE', #127, .T. ) ;
#185 = CARTESIAN_POINT ( 'NONE',  ( 6.000000000000000000, 3.673940397442059400E-016, 0.0000000000000000000 ) ) ;
#186 = CARTESIAN_POINT ( 'NONE',  ( 0.1799999999999996000, 1.102182119232612100E-017, 0.0000000000000000000 ) ) ;
#187 = ORIENTED_EDGE ( 'NONE', *, *, #95, .F. ) ;
#188 = CLOSED_SHELL ( 'NONE', ( #72, #297, #177, #212, #36, #67, #267, #70, #240, #202, #291, #328, #359 ) ) ;
#189 = AXIS2_PLACEMENT_3D ( 'NONE', #44, #275, #79 ) ;
#190 = EDGE_CURVE ( 'NONE', #75, #173, #43, .T. ) ;
#191 = FACE_OUTER_BOUND ( 'NONE', #241, .T. ) ;
#192 = STYLED_ITEM ( 'NONE', ( #42 ), #100 ) ;
#193 = CIRCLE ( 'NONE', #252, 0.5100000000000011200 ) ;
#194 = EDGE_LOOP ( 'NONE', ( #148, #288, #303, #157 ) ) ;
#195 = SURFACE_STYLE_USAGE ( .BOTH. , #340 ) ;
#196 = ORIENTED_EDGE ( 'NONE', *, *, #209, .T. ) ;
#197 = CARTESIAN_POINT ( 'NONE',  ( 0.1799999999999995500, 0.7850000000000005900, 0.0000000000000000000 ) ) ;
#198 = ADVANCED_BREP_SHAPE_REPRESENTATION ( 'UEBK-12127', ( #100, #166 ), #206 ) ;
#199 = CIRCLE ( 'NONE', #345, 0.5850000000000023000 ) ;
#200 = CIRCLE ( 'NONE', #154, 0.7850000000000005900 ) ;
#201 = EDGE_CURVE ( 'NONE', #56, #255, #200, .T. ) ;
#202 = ADVANCED_FACE ( 'NONE', ( #247, #234 ), #76, .F. ) ;
#203 = LINE ( 'NONE', #262, #50 ) ;
#204 = DIRECTION ( 'NONE',  ( 1.000000000000000000, 6.123233995736766000E-017, -0.0000000000000000000 ) ) ;
#205 = COLOUR_RGB ( '',0.6470588235294118000, 0.5176470588235293500, 0.0000000000000000000 ) ;
#206 =( GEOMETRIC_REPRESENTATION_CONTEXT ( 3 ) GLOBAL_UNCERTAINTY_ASSIGNED_CONTEXT ( ( #34 ) ) GLOBAL_UNIT_ASSIGNED_CONTEXT ( ( #45, #135, #139 ) ) REPRESENTATION_CONTEXT ( 'NONE', 'WORKASPACE' ) );
#207 = CIRCLE ( 'NONE', #170, 0.5100000000000000100 ) ;
#208 = CARTESIAN_POINT ( 'NONE',  ( 0.0000000000000000000, 0.0000000000000000000, 0.0000000000000000000 ) ) ;
#209 = EDGE_CURVE ( 'NONE', #32, #335, #98, .T. ) ;
#210 = VERTEX_POINT ( 'NONE', #40 ) ;
#211 = DIRECTION ( 'NONE',  ( 1.000000000000000000, 6.123233995736766000E-017, -0.0000000000000000000 ) ) ;
#212 = ADVANCED_FACE ( 'NONE', ( #151 ), #71, .T. ) ;
#213 = DIRECTION ( 'NONE',  ( 0.0000000000000000000, -1.000000000000000000, 0.0000000000000000000 ) ) ;
#214 = CARTESIAN_POINT ( 'NONE',  ( 7.490000000000000200, -1.606625838323614000E-016, 0.0000000000000000000 ) ) ;
#215 =( NAMED_UNIT ( * ) PLANE_ANGLE_UNIT ( ) SI_UNIT ( $, .RADIAN. ) );
#216 = VECTOR ( 'NONE', #38, 1000.000000000000000 ) ;
#217 = EDGE_CURVE ( 'NONE', #255, #165, #281, .T. ) ;
#218 = ORIENTED_EDGE ( 'NONE', *, *, #134, .F. ) ;
#219 = DIRECTION ( 'NONE',  ( -1.000000000000000000, -6.123233995736766000E-017, 0.0000000000000000000 ) ) ;
#220 = VECTOR ( 'NONE', #211, 1000.000000000000000 ) ;
#221 = ORIENTED_EDGE ( 'NONE', *, *, #305, .T. ) ;
#222 = ORIENTED_EDGE ( 'NONE', *, *, #49, .T. ) ;
#223 = APPLICATION_CONTEXT ( 'automotive_design' ) ;
#224 = ORIENTED_EDGE ( 'NONE', *, *, #95, .T. ) ;
#225 = EDGE_CURVE ( 'NONE', #102, #276, #153, .T. ) ;
#226 = DIRECTION ( 'NONE',  ( -5.340897401406426200E-017, 1.000000000000000000, 0.0000000000000000000 ) ) ;
#227 = DIRECTION ( 'NONE',  ( -1.000000000000000000, -6.123233995736766000E-017, 0.0000000000000000000 ) ) ;
#228 = MECHANICAL_DESIGN_GEOMETRIC_PRESENTATION_REPRESENTATION (  '', ( #192 ), #246 ) ;
#229 = DIRECTION ( 'NONE',  ( 1.000000000000000000, 6.123233995736766000E-017, -0.0000000000000000000 ) ) ;
#230 = ORIENTED_EDGE ( 'NONE', *, *, #39, .T. ) ;
#231 = PRODUCT_DEFINITION_SHAPE ( 'NONE', 'NONE',  #54 ) ;
#232 = COLOUR_RGB ( '',0.6470588235294118000, 0.5176470588235293500, 0.0000000000000000000 ) ;
#233 = DIRECTION ( 'NONE',  ( 0.0000000000000000000, 1.000000000000000000, 0.0000000000000000000 ) ) ;
#234 = FACE_BOUND ( 'NONE', #59, .T. ) ;
#235 = CIRCLE ( 'NONE', #86, 0.5850000000000023000 ) ;
#236 = AXIS2_PLACEMENT_3D ( 'NONE', #344, #227, #372 ) ;
#237 = DIRECTION ( 'NONE',  ( -1.000000000000000000, -6.123233995736766000E-017, 0.0000000000000000000 ) ) ;
#238 = CYLINDRICAL_SURFACE ( 'NONE', #189, 0.5100000000000009000 ) ;
#239 = DIRECTION ( 'NONE',  ( -6.123233995736766000E-017, 1.000000000000000000, 0.0000000000000000000 ) ) ;
#240 = ADVANCED_FACE ( 'NONE', ( #191 ), #250, .T. ) ;
#241 = EDGE_LOOP ( 'NONE', ( #293, #112, #224, #120 ) ) ;
#242 = ORIENTED_EDGE ( 'NONE', *, *, #201, .F. ) ;
#243 = DIRECTION ( 'NONE',  ( 1.000000000000000000, 6.123233995736766000E-017, -0.0000000000000000000 ) ) ;
#244 = DIRECTION ( 'NONE',  ( 1.000000000000000000, 6.123233995736766000E-017, -0.0000000000000000000 ) ) ;
#245 = DIRECTION ( 'NONE',  ( 0.0000000000000000000, 1.000000000000000000, 0.0000000000000000000 ) ) ;
#246 =( GEOMETRIC_REPRESENTATION_CONTEXT ( 3 ) GLOBAL_UNCERTAINTY_ASSIGNED_CONTEXT ( ( #30 ) ) GLOBAL_UNIT_ASSIGNED_CONTEXT ( ( #91, #176, #292 ) ) REPRESENTATION_CONTEXT ( 'NONE', 'WORKASPACE' ) );
#247 = FACE_OUTER_BOUND ( 'NONE', #27, .T. ) ;
#248 = CARTESIAN_POINT ( 'NONE',  ( 7.490000000000000200, -1.606625838323614000E-016, 0.0000000000000000000 ) ) ;
#249 = ORIENTED_EDGE ( 'NONE', *, *, #317, .F. ) ;
#250 = CYLINDRICAL_SURFACE ( 'NONE', #279, 0.7850000000000009200 ) ;
#251 = UNCERTAINTY_MEASURE_WITH_UNIT (LENGTH_MEASURE( 1.000000000000000100E-005 ), #301, 'distance_accuracy_value', 'NONE');
#252 = AXIS2_PLACEMENT_3D ( 'NONE', #346, #349, #233 ) ;
#253 = FACE_BOUND ( 'NONE', #178, .T. ) ;
#254 = EDGE_LOOP ( 'NONE', ( #83, #115, #283, #351 ) ) ;
#255 = VERTEX_POINT ( 'NONE', #126 ) ;
#256 = PLANE ( 'NONE',  #33 ) ;
#257 = FACE_OUTER_BOUND ( 'NONE', #172, .T. ) ;
#258 = DIRECTION ( 'NONE',  ( -6.123233995736766000E-017, 1.000000000000000000, 0.0000000000000000000 ) ) ;
#259 = CARTESIAN_POINT ( 'NONE',  ( 0.1799999999999996000, 1.102182119232612100E-017, 0.0000000000000000000 ) ) ;
#260 = ORIENTED_EDGE ( 'NONE', *, *, #355, .T. ) ;
#261 = DIRECTION ( 'NONE',  ( 1.000000000000000000, 6.123233995736766000E-017, -0.0000000000000000000 ) ) ;
#262 = CARTESIAN_POINT ( 'NONE',  ( 6.000000000000000000, -0.5850000000000019600, 0.0000000000000000000 ) ) ;
#263 = AXIS2_PLACEMENT_3D ( 'NONE', #8, #325, #128 ) ;
#264 = LINE ( 'NONE', #103, #216 ) ;
#265 = VECTOR ( 'NONE', #341, 1000.000000000000000 ) ;
#266 = PRODUCT_DEFINITION_CONTEXT ( 'detailed design', #223, 'design' ) ;
#267 = ADVANCED_FACE ( 'NONE', ( #123 ), #47, .T. ) ;
#268 = CARTESIAN_POINT ( 'NONE',  ( 8.000000000000000000, 4.898587196589412800E-016, 0.0000000000000000000 ) ) ;
#269 = CARTESIAN_POINT ( 'NONE',  ( 8.000000000000000000, -0.7850000000000003600, 9.613477373306733400E-017 ) ) ;
#270 = DIRECTION ( 'NONE',  ( 0.0000000000000000000, 1.000000000000000000, 0.0000000000000000000 ) ) ;
#271 = APPLICATION_CONTEXT ( 'automotive_design' ) ;
#272 = FILL_AREA_STYLE_COLOUR ( '', #232 ) ;
#273 = DIRECTION ( 'NONE',  ( 1.000000000000000000, 6.123233995736766000E-017, -0.0000000000000000000 ) ) ;
#274 = AXIS2_PLACEMENT_3D ( 'NONE', #24, #339, #287 ) ;
#275 = DIRECTION ( 'NONE',  ( 1.000000000000000000, 6.123233995736766000E-017, -0.0000000000000000000 ) ) ;
#276 = VERTEX_POINT ( 'NONE', #352 ) ;
#277 = CARTESIAN_POINT ( 'NONE',  ( 7.490000000000000200, -0.5100000000000003400, 6.245698675651510900E-017 ) ) ;
#278 = CYLINDRICAL_SURFACE ( 'NONE', #138, 0.5100000000000009000 ) ;
#279 = AXIS2_PLACEMENT_3D ( 'NONE', #358, #299, #270 ) ;
#280 = DIRECTION ( 'NONE',  ( 1.000000000000000000, 6.123233995736766000E-017, -0.0000000000000000000 ) ) ;
#281 = LINE ( 'NONE', #269, #348 ) ;
#282 = EDGE_CURVE ( 'NONE', #255, #56, #22, .T. ) ;
#283 = ORIENTED_EDGE ( 'NONE', *, *, #2, .F. ) ;
#284 = PLANE ( 'NONE',  #375 ) ;
#285 = FILL_AREA_STYLE_COLOUR ( '', #205 ) ;
#286 = AXIS2_PLACEMENT_3D ( 'NONE', #10, #273, #137 ) ;
#287 = DIRECTION ( 'NONE',  ( 0.0000000000000000000, -1.000000000000000000, 0.0000000000000000000 ) ) ;
#288 = ORIENTED_EDGE ( 'NONE', *, *, #55, .F. ) ;
#289 = EDGE_LOOP ( 'NONE', ( #310, #104, #365, #144 ) ) ;
#290 = CONICAL_SURFACE ( 'NONE', #14, 0.5850000000000023000, 0.7853981633974433900 ) ;
#291 = ADVANCED_FACE ( 'NONE', ( #184 ), #238, .T. ) ;
#292 =( NAMED_UNIT ( * ) SI_UNIT ( $, .STERADIAN. ) SOLID_ANGLE_UNIT ( ) );
#293 = ORIENTED_EDGE ( 'NONE', *, *, #217, .F. ) ;
#294 = AXIS2_PLACEMENT_3D ( 'NONE', #21, #145, #89 ) ;
#295 = EDGE_CURVE ( 'NONE', #276, #60, #207, .T. ) ;
#296 = DIRECTION ( 'NONE',  ( 6.123233995736766000E-017, -1.000000000000000000, 0.0000000000000000000 ) ) ;
#297 = ADVANCED_FACE ( 'NONE', ( #64 ), #9, .T. ) ;
#298 = ORIENTED_EDGE ( 'NONE', *, *, #55, .T. ) ;
#299 = DIRECTION ( 'NONE',  ( 1.000000000000000000, 6.123233995736766000E-017, -0.0000000000000000000 ) ) ;
#300 = ORIENTED_EDGE ( 'NONE', *, *, #209, .F. ) ;
#301 =( LENGTH_UNIT ( ) NAMED_UNIT ( * ) SI_UNIT ( .MILLI., .METRE. ) );
#302 = DIRECTION ( 'NONE',  ( 0.0000000000000000000, 0.0000000000000000000, -1.000000000000000000 ) ) ;
#303 = ORIENTED_EDGE ( 'NONE', *, *, #117, .T. ) ;
#304 = DIRECTION ( 'NONE',  ( -5.340897401406426200E-017, 1.000000000000000000, 0.0000000000000000000 ) ) ;
#305 = EDGE_CURVE ( 'NONE', #210, #164, #90, .T. ) ;
#306 = CARTESIAN_POINT ( 'NONE',  ( 8.000000000000000000, 1.015000000000000300, 0.0000000000000000000 ) ) ;
#307 = DIRECTION ( 'NONE',  ( 0.0000000000000000000, 0.0000000000000000000, 1.000000000000000000 ) ) ;
#308 = AXIS2_PLACEMENT_3D ( 'NONE', #332, #307, #13 ) ;
#309 = ORIENTED_EDGE ( 'NONE', *, *, #295, .F. ) ;
#310 = ORIENTED_EDGE ( 'NONE', *, *, #23, .F. ) ;
#311 = SHAPE_DEFINITION_REPRESENTATION ( #231, #198 ) ;
#312 = CIRCLE ( 'NONE', #263, 1.014999999999999900 ) ;
#313 = CARTESIAN_POINT ( 'NONE',  ( 6.000000000000000000, 3.673940397442059400E-016, 0.0000000000000000000 ) ) ;
#314 = ORIENTED_EDGE ( 'NONE', *, *, #39, .F. ) ;
#315 = CARTESIAN_POINT ( 'NONE',  ( 8.000000000000000000, 0.7850000000000013600, 0.0000000000000000000 ) ) ;
#316 = EDGE_CURVE ( 'NONE', #173, #164, #84, .T. ) ;
#317 = EDGE_CURVE ( 'NONE', #335, #60, #94, .T. ) ;
#318 = SURFACE_STYLE_FILL_AREA ( #143 ) ;
#319 = VECTOR ( 'NONE', #280, 1000.000000000000000 ) ;
#320 = ORIENTED_EDGE ( 'NONE', *, *, #77, .T. ) ;
#321 = ORIENTED_EDGE ( 'NONE', *, *, #2, .T. ) ;
#322 = CARTESIAN_POINT ( 'NONE',  ( 6.000000000000000000, 3.673940397442059400E-016, 0.0000000000000000000 ) ) ;
#323 = FACE_OUTER_BOUND ( 'NONE', #194, .T. ) ;
#324 = DIRECTION ( 'NONE',  ( 0.0000000000000000000, 1.000000000000000000, 0.0000000000000000000 ) ) ;
#325 = DIRECTION ( 'NONE',  ( 1.000000000000000000, 6.123233995736766000E-017, -0.0000000000000000000 ) ) ;
#326 = CYLINDRICAL_SURFACE ( 'NONE', #361, 1.014999999999999900 ) ;
#327 = CARTESIAN_POINT ( 'NONE',  ( 8.000000000000000000, -0.5100000000000003400, 6.245698675651512200E-017 ) ) ;
#328 = ADVANCED_FACE ( 'NONE', ( #257 ), #20, .T. ) ;
#329 = CARTESIAN_POINT ( 'NONE',  ( 8.000000000000000000, 0.5100000000000014500, 0.0000000000000000000 ) ) ;
#330 = FACE_OUTER_BOUND ( 'NONE', #158, .T. ) ;
#331 = ORIENTED_EDGE ( 'NONE', *, *, #317, .T. ) ;
#332 = CARTESIAN_POINT ( 'NONE',  ( 7.490000000000000200, -1.606625838323614000E-016, 0.0000000000000000000 ) ) ;
#333 = DIRECTION ( 'NONE',  ( 0.0000000000000000000, 0.0000000000000000000, 1.000000000000000000 ) ) ;
#334 = AXIS2_PLACEMENT_3D ( 'NONE', #105, #354, #41 ) ;
#335 = VERTEX_POINT ( 'NONE', #277 ) ;
#336 = FILL_AREA_STYLE ('',( #272 ) ) ;
#337 = ORIENTED_EDGE ( 'NONE', *, *, #114, .F. ) ;
#338 = STYLED_ITEM ( 'NONE', ( #141 ), #198 ) ;
#339 = DIRECTION ( 'NONE',  ( -1.000000000000000000, -6.123233995736766000E-017, 0.0000000000000000000 ) ) ;
#340 = SURFACE_SIDE_STYLE ('',( #318 ) ) ;
#341 = DIRECTION ( 'NONE',  ( 1.000000000000000000, 6.123233995736766000E-017, -0.0000000000000000000 ) ) ;
#342 = CIRCLE ( 'NONE', #294, 0.5100000000000007900 ) ;
#343 = EDGE_LOOP ( 'NONE', ( #230, #52, #249 ) ) ;
#344 = CARTESIAN_POINT ( 'NONE',  ( 5.799999999999999800, 3.551475717527323300E-016, 0.0000000000000000000 ) ) ;
#345 = AXIS2_PLACEMENT_3D ( 'NONE', #322, #96, #1 ) ;
#346 = CARTESIAN_POINT ( 'NONE',  ( 6.000000000000000000, 3.673940397442059400E-016, 0.0000000000000000000 ) ) ;
#347 = CIRCLE ( 'NONE', #371, 0.5100000000000011200 ) ;
#348 = VECTOR ( 'NONE', #74, 1000.000000000000000 ) ;
#349 = DIRECTION ( 'NONE',  ( 1.000000000000000000, 6.123233995736766000E-017, -0.0000000000000000000 ) ) ;
#350 = AXIS2_PLACEMENT_3D ( 'NONE', #155, #237, #296 ) ;
#351 = ORIENTED_EDGE ( 'NONE', *, *, #117, .F. ) ;
#352 = CARTESIAN_POINT ( 'NONE',  ( 7.490000000000000200, 0.5100000000000012300, 0.0000000000000000000 ) ) ;
#353 = EDGE_LOOP ( 'NONE', ( #65, #17, #321, #187 ) ) ;
#354 = DIRECTION ( 'NONE',  ( -1.000000000000000000, -6.123233995736766000E-017, 0.0000000000000000000 ) ) ;
#355 = EDGE_CURVE ( 'NONE', #32, #102, #347, .T. ) ;
#356 = DIRECTION ( 'NONE',  ( -6.905746321563716700E-017, 1.000000000000000000, 0.0000000000000000000 ) ) ;
#357 = CIRCLE ( 'NONE', #4, 1.014999999999999900 ) ;
#358 = CARTESIAN_POINT ( 'NONE',  ( 8.000000000000000000, 4.898587196589412800E-016, 0.0000000000000000000 ) ) ;
#359 = ADVANCED_FACE ( 'NONE', ( #323 ), #290, .T. ) ;
#360 = APPLICATION_PROTOCOL_DEFINITION ( 'draft international standard', 'automotive_design', 1998, #271 ) ;
#361 = AXIS2_PLACEMENT_3D ( 'NONE', #63, #370, #57 ) ;
#362 = DIRECTION ( 'NONE',  ( 0.0000000000000000000, 1.000000000000000000, -1.224646799147353200E-016 ) ) ;
#363 = DIRECTION ( 'NONE',  ( 1.000000000000000000, 6.123233995736766000E-017, -0.0000000000000000000 ) ) ;
#364 = FACE_OUTER_BOUND ( 'NONE', #37, .T. ) ;
#365 = ORIENTED_EDGE ( 'NONE', *, *, #316, .T. ) ;
#366 = ORIENTED_EDGE ( 'NONE', *, *, #23, .T. ) ;
#367 = PRODUCT_CONTEXT ( 'NONE', #271, 'mechanical' ) ;
#368 = DIRECTION ( 'NONE',  ( 6.123233995736766000E-017, -1.000000000000000000, 0.0000000000000000000 ) ) ;
#369 = ORIENTED_EDGE ( 'NONE', *, *, #77, .F. ) ;
#370 = DIRECTION ( 'NONE',  ( 1.000000000000000000, 6.123233995736766000E-017, -0.0000000000000000000 ) ) ;
#371 = AXIS2_PLACEMENT_3D ( 'NONE', #185, #108, #245 ) ;
#372 = DIRECTION ( 'NONE',  ( 0.0000000000000000000, -1.000000000000000000, 0.0000000000000000000 ) ) ;
#373 = ORIENTED_EDGE ( 'NONE', *, *, #282, .F. ) ;
#374 = CARTESIAN_POINT ( 'NONE',  ( 5.799999999999999800, -0.7850000000000005900, 9.613477373306733400E-017 ) ) ;
#375 = AXIS2_PLACEMENT_3D ( 'NONE', #92, #146, #368 ) ;
#376 = ORIENTED_EDGE ( 'NONE', *, *, #225, .T. ) ;
ENDSEC;
END-ISO-10303-21;
