ISO-10303-21;
HEADER;
FILE_DESCRIPTION (( 'STEP AP214' ),
    '1' );
FILE_NAME ('UEBK-12598.STEP',
    '2015-09-23T14:16:38',
    ( '' ),
    ( '' ),
    'SwSTEP 2.0',
    'SolidWorks 2015',
    '' );
FILE_SCHEMA (( 'AUTOMOTIVE_DESIGN' ));
ENDSEC;

DATA;
#1 = ADVANCED_FACE ( 'NONE', ( #154 ), #183, .F. ) ;
#2 = EDGE_CURVE ( 'NONE', #340, #164, #308, .T. ) ;
#3 = ADVANCED_FACE ( 'NONE', ( #192 ), #13, .T. ) ;
#4 = DIRECTION ( 'NONE',  ( -1.000000000000000000, -2.296212748401289300E-017, 0.0000000000000000000 ) ) ;
#5 = AXIS2_PLACEMENT_3D ( 'NONE', #100, #334, #77 ) ;
#6 = DIRECTION ( 'NONE',  ( 0.0000000000000000000, 1.000000000000000000, 0.0000000000000000000 ) ) ;
#7 = CIRCLE ( 'NONE', #101, 0.5000000000000000000 ) ;
#8 = DIRECTION ( 'NONE',  ( 1.000000000000000000, 2.296212748401287100E-017, -0.0000000000000000000 ) ) ;
#9 = CARTESIAN_POINT ( 'NONE',  ( 2.500000000000000000, 5.740531871003217500E-017, 0.0000000000000000000 ) ) ;
#10 = UNCERTAINTY_MEASURE_WITH_UNIT (LENGTH_MEASURE( 1.000000000000000100E-005 ), #372, 'distance_accuracy_value', 'NONE');
#11 = EDGE_LOOP ( 'NONE', ( #51, #318, #45, #165 ) ) ;
#12 = DIRECTION ( 'NONE',  ( 2.296212748401287100E-017, -1.000000000000000000, 0.0000000000000000000 ) ) ;
#13 = CONICAL_SURFACE ( 'NONE', #326, 0.5500000000000004900, 0.7853981633974480600 ) ;
#14 = DIRECTION ( 'NONE',  ( -1.000000000000000000, -2.296212748401289300E-017, 0.0000000000000000000 ) ) ;
#15 = EDGE_CURVE ( 'NONE', #357, #275, #225, .T. ) ;
#16 = EDGE_CURVE ( 'NONE', #164, #340, #39, .T. ) ;
#17 = DIRECTION ( 'NONE',  ( 1.000000000000000000, 2.296212748401287100E-017, -0.0000000000000000000 ) ) ;
#18 = DIRECTION ( 'NONE',  ( 1.000000000000000000, 2.296212748401287100E-017, -0.0000000000000000000 ) ) ;
#19 = UNCERTAINTY_MEASURE_WITH_UNIT (LENGTH_MEASURE( 1.000000000000000100E-005 ), #157, 'distance_accuracy_value', 'NONE');
#20 = CARTESIAN_POINT ( 'NONE',  ( 0.0000000000000000000, 0.0000000000000000000, 0.0000000000000000000 ) ) ;
#21 = AXIS2_PLACEMENT_3D ( 'NONE', #151, #205, #209 ) ;
#22 = DIRECTION ( 'NONE',  ( 1.000000000000000000, 2.296212748401287100E-017, -0.0000000000000000000 ) ) ;
#23 = EDGE_LOOP ( 'NONE', ( #81, #202 ) ) ;
#24 = AXIS2_PLACEMENT_3D ( 'NONE', #268, #163, #331 ) ;
#25 = FILL_AREA_STYLE ('',( #224 ) ) ;
#26 = ADVANCED_FACE ( 'NONE', ( #256 ), #109, .T. ) ;
#27 = MECHANICAL_DESIGN_GEOMETRIC_PRESENTATION_REPRESENTATION (  '', ( #332 ), #316 ) ;
#28 = ORIENTED_EDGE ( 'NONE', *, *, #36, .T. ) ;
#29 = ADVANCED_FACE ( 'NONE', ( #153 ), #303, .T. ) ;
#30 = AXIS2_PLACEMENT_3D ( 'NONE', #37, #156, #293 ) ;
#31 = CARTESIAN_POINT ( 'NONE',  ( 2.500000000000000000, -0.7500000000000004400, 0.0000000000000000000 ) ) ;
#32 = VECTOR ( 'NONE', #342, 1000.000000000000000 ) ;
#33 = CARTESIAN_POINT ( 'NONE',  ( 4.000000000000000000, 0.9000000000000001300, 0.0000000000000000000 ) ) ;
#34 = EDGE_LOOP ( 'NONE', ( #358, #312, #35, #280 ) ) ;
#35 = ORIENTED_EDGE ( 'NONE', *, *, #47, .T. ) ;
#36 = EDGE_CURVE ( 'NONE', #226, #357, #143, .T. ) ;
#37 = CARTESIAN_POINT ( 'NONE',  ( 4.000000000000000000, 9.184850993605148400E-017, 0.0000000000000000000 ) ) ;
#38 = DIRECTION ( 'NONE',  ( -0.7071067811865477900, -0.7071067811865473500, 0.0000000000000000000 ) ) ;
#39 = CIRCLE ( 'NONE', #170, 0.5000000000000003300 ) ;
#40 = CARTESIAN_POINT ( 'NONE',  ( 2.500000000000000000, 0.5000000000000004400, 0.0000000000000000000 ) ) ;
#41 = DIRECTION ( 'NONE',  ( 0.0000000000000000000, -1.000000000000000000, 0.0000000000000000000 ) ) ;
#42 = CARTESIAN_POINT ( 'NONE',  ( 0.4000000000000001900, -0.7500000000000004400, 9.184850993605154600E-017 ) ) ;
#43 = FACE_BOUND ( 'NONE', #150, .T. ) ;
#44 = DIRECTION ( 'NONE',  ( 0.0000000000000000000, 0.0000000000000000000, 1.000000000000000000 ) ) ;
#45 = ORIENTED_EDGE ( 'NONE', *, *, #2, .F. ) ;
#46 = ORIENTED_EDGE ( 'NONE', *, *, #304, .F. ) ;
#47 = EDGE_CURVE ( 'NONE', #145, #85, #217, .T. ) ;
#48 = CIRCLE ( 'NONE', #341, 0.5000000000000003300 ) ;
#49 = CARTESIAN_POINT ( 'NONE',  ( 3.500000000000000000, -2.168404344971008900E-016, 0.0000000000000000000 ) ) ;
#50 = DIRECTION ( 'NONE',  ( 2.812049592490983000E-033, -1.224646799147353200E-016, -1.000000000000000000 ) ) ;
#51 = ORIENTED_EDGE ( 'NONE', *, *, #300, .T. ) ;
#52 = EDGE_LOOP ( 'NONE', ( #368, #65, #104, #71 ) ) ;
#53 = PRODUCT ( 'UEBK-12598', 'UEBK-12598', '', ( #313 ) ) ;
#54 = FACE_OUTER_BOUND ( 'NONE', #185, .T. ) ;
#55 = ORIENTED_EDGE ( 'NONE', *, *, #15, .F. ) ;
#56 = DIRECTION ( 'NONE',  ( 1.000000000000000000, 0.0000000000000000000, 0.0000000000000000000 ) ) ;
#57 = ADVANCED_FACE ( 'NONE', ( #149 ), #292, .T. ) ;
#58 = ORIENTED_EDGE ( 'NONE', *, *, #16, .F. ) ;
#59 = ADVANCED_FACE ( 'NONE', ( #69 ), #279, .T. ) ;
#60 = AXIS2_PLACEMENT_3D ( 'NONE', #207, #178, #61 ) ;
#61 = DIRECTION ( 'NONE',  ( 0.0000000000000000000, 1.000000000000000000, 0.0000000000000000000 ) ) ;
#62 = AXIS2_PLACEMENT_3D ( 'NONE', #223, #17, #296 ) ;
#63 = DIRECTION ( 'NONE',  ( 1.000000000000000000, 2.296212748401287100E-017, -0.0000000000000000000 ) ) ;
#64 = VECTOR ( 'NONE', #8, 1000.000000000000000 ) ;
#65 = ORIENTED_EDGE ( 'NONE', *, *, #108, .T. ) ;
#66 = CARTESIAN_POINT ( 'NONE',  ( 4.000000000000000000, 9.184850993605148400E-017, 0.0000000000000000000 ) ) ;
#67 = DIRECTION ( 'NONE',  ( -2.296212748401287100E-017, 1.000000000000000000, 0.0000000000000000000 ) ) ;
#68 = DIRECTION ( 'NONE',  ( 0.0000000000000000000, -1.000000000000000000, 0.0000000000000000000 ) ) ;
#69 = FACE_OUTER_BOUND ( 'NONE', #138, .T. ) ;
#70 = DIRECTION ( 'NONE',  ( -2.296212748401286800E-017, 1.000000000000000000, 0.0000000000000000000 ) ) ;
#71 = ORIENTED_EDGE ( 'NONE', *, *, #227, .F. ) ;
#72 = VECTOR ( 'NONE', #273, 1000.000000000000000 ) ;
#73 = SPHERICAL_SURFACE ( 'NONE', #319, 0.5000000000000000000 ) ;
#74 = CARTESIAN_POINT ( 'NONE',  ( 2.066591473561158300E-017, -0.9000000000000000200, 1.102182119232617800E-016 ) ) ;
#75 = DIRECTION ( 'NONE',  ( 2.296212748401287100E-017, -1.000000000000000000, 0.0000000000000000000 ) ) ;
#76 = DIRECTION ( 'NONE',  ( 0.0000000000000000000, 1.000000000000000000, -1.224646799147353200E-016 ) ) ;
#77 = DIRECTION ( 'NONE',  ( 0.0000000000000000000, 1.000000000000000000, 0.0000000000000000000 ) ) ;
#78 = EDGE_CURVE ( 'NONE', #145, #119, #208, .T. ) ;
#79 = DIRECTION ( 'NONE',  ( 1.000000000000000000, 0.0000000000000000000, 0.0000000000000000000 ) ) ;
#80 = SURFACE_SIDE_STYLE ('',( #210 ) ) ;
#81 = ORIENTED_EDGE ( 'NONE', *, *, #304, .T. ) ;
#82 = CARTESIAN_POINT ( 'NONE',  ( 2.500000000000000000, 5.740531871003217500E-017, 0.0000000000000000000 ) ) ;
#83 = DIRECTION ( 'NONE',  ( 1.000000000000000000, 2.296212748401287100E-017, -0.0000000000000000000 ) ) ;
#84 = AXIS2_PLACEMENT_3D ( 'NONE', #20, #147, #56 ) ;
#85 = VERTEX_POINT ( 'NONE', #284 ) ;
#86 = LINE ( 'NONE', #195, #106 ) ;
#87 = FACE_OUTER_BOUND ( 'NONE', #144, .T. ) ;
#88 = ADVANCED_FACE ( 'NONE', ( #124, #43 ), #353, .F. ) ;
#89 =( NAMED_UNIT ( * ) SI_UNIT ( $, .STERADIAN. ) SOLID_ANGLE_UNIT ( ) );
#90 = DIRECTION ( 'NONE',  ( 0.0000000000000000000, 1.000000000000000000, 0.0000000000000000000 ) ) ;
#91 = ORIENTED_EDGE ( 'NONE', *, *, #272, .F. ) ;
#92 = DIRECTION ( 'NONE',  ( 0.0000000000000000000, -1.000000000000000000, 0.0000000000000000000 ) ) ;
#93 = DIRECTION ( 'NONE',  ( 1.000000000000000000, 2.296212748401287100E-017, -0.0000000000000000000 ) ) ;
#94 = DIRECTION ( 'NONE',  ( -1.000000000000000000, -2.296212748401289300E-017, 0.0000000000000000000 ) ) ;
#95 = AXIS2_PLACEMENT_3D ( 'NONE', #281, #93, #232 ) ;
#96 = FILL_AREA_STYLE_COLOUR ( '', #239 ) ;
#97 = PRODUCT_DEFINITION_SHAPE ( 'NONE', 'NONE',  #311 ) ;
#98 = CARTESIAN_POINT ( 'NONE',  ( 2.500000000000000000, 0.5500000000000006000, 6.735557395310448700E-017 ) ) ;
#99 = ORIENTED_EDGE ( 'NONE', *, *, #78, .F. ) ;
#100 = CARTESIAN_POINT ( 'NONE',  ( 0.4000000000000001900, 9.184850993605147200E-018, 0.0000000000000000000 ) ) ;
#101 = AXIS2_PLACEMENT_3D ( 'NONE', #167, #50, #76 ) ;
#102 = CARTESIAN_POINT ( 'NONE',  ( 0.4000000000000001900, 9.184850993605147200E-018, 0.0000000000000000000 ) ) ;
#103 = CARTESIAN_POINT ( 'NONE',  ( 2.299999999999999800, 0.7500000000000004400, 0.0000000000000000000 ) ) ;
#104 = ORIENTED_EDGE ( 'NONE', *, *, #174, .F. ) ;
#105 = DIRECTION ( 'NONE',  ( 0.0000000000000000000, 1.000000000000000000, 0.0000000000000000000 ) ) ;
#106 = VECTOR ( 'NONE', #83, 1000.000000000000000 ) ;
#107 = CARTESIAN_POINT ( 'NONE',  ( 4.000000000000000000, -0.8999999999999999100, 1.102182119232617800E-016 ) ) ;
#108 = EDGE_CURVE ( 'NONE', #118, #357, #299, .T. ) ;
#109 = CYLINDRICAL_SURFACE ( 'NONE', #21, 0.7500000000000004400 ) ;
#110 = ORIENTED_EDGE ( 'NONE', *, *, #16, .T. ) ;
#111 = EDGE_LOOP ( 'NONE', ( #99, #276 ) ) ;
#112 = LINE ( 'NONE', #107, #32 ) ;
#113 = VERTEX_POINT ( 'NONE', #294 ) ;
#114 = ORIENTED_EDGE ( 'NONE', *, *, #244, .T. ) ;
#115 = SURFACE_STYLE_USAGE ( .BOTH. , #80 ) ;
#116 = VECTOR ( 'NONE', #324, 999.9999999999998900 ) ;
#117 = PRODUCT_DEFINITION_CONTEXT ( 'detailed design', #254, 'design' ) ;
#118 = VERTEX_POINT ( 'NONE', #134 ) ;
#119 = VERTEX_POINT ( 'NONE', #74 ) ;
#120 = AXIS2_PLACEMENT_3D ( 'NONE', #237, #14, #41 ) ;
#121 = ADVANCED_FACE ( 'NONE', ( #335 ), #200, .T. ) ;
#122 = DIRECTION ( 'NONE',  ( 1.000000000000000000, 2.296212748401287100E-017, -0.0000000000000000000 ) ) ;
#123 = ADVANCED_FACE ( 'NONE', ( #212 ), #168, .T. ) ;
#124 = FACE_OUTER_BOUND ( 'NONE', #374, .T. ) ;
#125 = ORIENTED_EDGE ( 'NONE', *, *, #333, .T. ) ;
#126 = DIRECTION ( 'NONE',  ( -1.000000000000000000, -2.296212748401289300E-017, 0.0000000000000000000 ) ) ;
#127 = DIRECTION ( 'NONE',  ( 1.000000000000000000, 2.296212748401287100E-017, -0.0000000000000000000 ) ) ;
#128 = DIRECTION ( 'NONE',  ( 1.000000000000000000, 2.296212748401287100E-017, -0.0000000000000000000 ) ) ;
#129 = AXIS2_PLACEMENT_3D ( 'NONE', #257, #152, #260 ) ;
#130 = CARTESIAN_POINT ( 'NONE',  ( 3.500000000000000000, -2.168404344971008900E-016, 0.0000000000000000000 ) ) ;
#131 = AXIS2_PLACEMENT_3D ( 'NONE', #155, #126, #184 ) ;
#132 = ORIENTED_EDGE ( 'NONE', *, *, #36, .F. ) ;
#133 = VECTOR ( 'NONE', #122, 1000.000000000000000 ) ;
#134 = CARTESIAN_POINT ( 'NONE',  ( 2.500000000000000000, 0.5500000000000006000, 7.960204194457801600E-017 ) ) ;
#135 = CIRCLE ( 'NONE', #295, 0.9000000000000000200 ) ;
#136 = CARTESIAN_POINT ( 'NONE',  ( 4.000000000000000000, 0.5000000000000004400, 0.0000000000000000000 ) ) ;
#137 = DIRECTION ( 'NONE',  ( 0.0000000000000000000, -1.000000000000000000, 0.0000000000000000000 ) ) ;
#138 = EDGE_LOOP ( 'NONE', ( #179, #305, #286 ) ) ;
#139 = PRESENTATION_STYLE_ASSIGNMENT (( #115 ) ) ;
#140 = CARTESIAN_POINT ( 'NONE',  ( 0.4000000000000001900, 9.184850993605147200E-018, 0.0000000000000000000 ) ) ;
#141 = STYLED_ITEM ( 'NONE', ( #321 ), #218 ) ;
#142 = DIRECTION ( 'NONE',  ( -2.296212748401286800E-017, 1.000000000000000000, 0.0000000000000000000 ) ) ;
#143 = LINE ( 'NONE', #288, #64 ) ;
#144 = EDGE_LOOP ( 'NONE', ( #220, #248, #46, #180 ) ) ;
#145 = VERTEX_POINT ( 'NONE', #356 ) ;
#146 = CLOSED_SHELL ( 'NONE', ( #123, #278, #57, #26, #235, #1, #121, #206, #29, #88, #201, #59, #3 ) ) ;
#147 = DIRECTION ( 'NONE',  ( 0.0000000000000000000, 0.0000000000000000000, 1.000000000000000000 ) ) ;
#148 = ORIENTED_EDGE ( 'NONE', *, *, #365, .T. ) ;
#149 = FACE_OUTER_BOUND ( 'NONE', #11, .T. ) ;
#150 = EDGE_LOOP ( 'NONE', ( #247, #204 ) ) ;
#151 = CARTESIAN_POINT ( 'NONE',  ( 4.000000000000000000, 9.184850993605148400E-017, 0.0000000000000000000 ) ) ;
#152 = DIRECTION ( 'NONE',  ( 0.0000000000000000000, 0.0000000000000000000, -1.000000000000000000 ) ) ;
#153 = FACE_OUTER_BOUND ( 'NONE', #261, .T. ) ;
#154 = FACE_OUTER_BOUND ( 'NONE', #111, .T. ) ;
#155 = CARTESIAN_POINT ( 'NONE',  ( 2.299999999999999800, 5.281289321322959200E-017, 0.0000000000000000000 ) ) ;
#156 = DIRECTION ( 'NONE',  ( 1.000000000000000000, 2.296212748401287100E-017, -0.0000000000000000000 ) ) ;
#157 =( LENGTH_UNIT ( ) NAMED_UNIT ( * ) SI_UNIT ( .MILLI., .METRE. ) );
#158 = CARTESIAN_POINT ( 'NONE',  ( 0.4000000000000001900, -0.9000000000000000200, 1.102182119232617800E-016 ) ) ;
#159 = MECHANICAL_DESIGN_GEOMETRIC_PRESENTATION_REPRESENTATION (  '', ( #141 ), #198 ) ;
#160 = SURFACE_STYLE_USAGE ( .BOTH. , #290 ) ;
#161 = ORIENTED_EDGE ( 'NONE', *, *, #15, .T. ) ;
#162 = DIRECTION ( 'NONE',  ( 1.000000000000000000, 2.296212748401287100E-017, -0.0000000000000000000 ) ) ;
#163 = DIRECTION ( 'NONE',  ( 1.000000000000000000, 2.296212748401287100E-017, -0.0000000000000000000 ) ) ;
#164 = VERTEX_POINT ( 'NONE', #243 ) ;
#165 = ORIENTED_EDGE ( 'NONE', *, *, #244, .F. ) ;
#166 = CIRCLE ( 'NONE', #221, 0.9000000000000000200 ) ;
#167 = CARTESIAN_POINT ( 'NONE',  ( 3.500000000000000000, -2.168404344971008900E-016, 0.0000000000000000000 ) ) ;
#168 = CONICAL_SURFACE ( 'NONE', #120, 0.5500000000000004900, 0.7853981633974480600 ) ;
#169 = AXIS2_PLACEMENT_3D ( 'NONE', #240, #94, #68 ) ;
#170 = AXIS2_PLACEMENT_3D ( 'NONE', #350, #181, #6 ) ;
#171 = AXIS2_PLACEMENT_3D ( 'NONE', #49, #44, #79 ) ;
#172 = ORIENTED_EDGE ( 'NONE', *, *, #255, .F. ) ;
#173 = VECTOR ( 'NONE', #127, 1000.000000000000000 ) ;
#174 = EDGE_CURVE ( 'NONE', #275, #357, #177, .T. ) ;
#175 = APPLICATION_CONTEXT ( 'automotive_design' ) ;
#176 = APPLICATION_PROTOCOL_DEFINITION ( 'draft international standard', 'automotive_design', 1998, #254 ) ;
#177 = CIRCLE ( 'NONE', #169, 0.7500000000000004400 ) ;
#178 = DIRECTION ( 'NONE',  ( 1.000000000000000000, 2.296212748401287100E-017, -0.0000000000000000000 ) ) ;
#179 = ORIENTED_EDGE ( 'NONE', *, *, #333, .F. ) ;
#180 = ORIENTED_EDGE ( 'NONE', *, *, #47, .F. ) ;
#181 = DIRECTION ( 'NONE',  ( 1.000000000000000000, 2.296212748401287100E-017, -0.0000000000000000000 ) ) ;
#182 = AXIS2_PLACEMENT_3D ( 'NONE', #361, #186, #75 ) ;
#183 = PLANE ( 'NONE',  #230 ) ;
#184 = DIRECTION ( 'NONE',  ( 0.0000000000000000000, -1.000000000000000000, 0.0000000000000000000 ) ) ;
#185 = EDGE_LOOP ( 'NONE', ( #110, #125, #172 ) ) ;
#186 = DIRECTION ( 'NONE',  ( -1.000000000000000000, -2.296212748401287100E-017, 0.0000000000000000000 ) ) ;
#187 = AXIS2_PLACEMENT_3D ( 'NONE', #188, #128, #214 ) ;
#188 = CARTESIAN_POINT ( 'NONE',  ( 4.000000000000000000, 9.184850993605148400E-017, 0.0000000000000000000 ) ) ;
#189 = CIRCLE ( 'NONE', #24, 0.5500000000000004900 ) ;
#190 = DIRECTION ( 'NONE',  ( 1.000000000000000000, 2.296212748401287100E-017, -0.0000000000000000000 ) ) ;
#191 = VERTEX_POINT ( 'NONE', #40 ) ;
#192 = FACE_OUTER_BOUND ( 'NONE', #323, .T. ) ;
#193 = CARTESIAN_POINT ( 'NONE',  ( 0.4000000000000001900, 9.184850993605147200E-018, 0.0000000000000000000 ) ) ;
#194 = ADVANCED_BREP_SHAPE_REPRESENTATION ( 'UEBK-12598', ( #218, #84 ), #236 ) ;
#195 = CARTESIAN_POINT ( 'NONE',  ( 4.000000000000000000, -0.5000000000000002200, 6.123233995736771000E-017 ) ) ;
#196 =( NAMED_UNIT ( * ) PLANE_ANGLE_UNIT ( ) SI_UNIT ( $, .RADIAN. ) );
#197 = CIRCLE ( 'NONE', #5, 0.7500000000000004400 ) ;
#198 =( GEOMETRIC_REPRESENTATION_CONTEXT ( 3 ) GLOBAL_UNCERTAINTY_ASSIGNED_CONTEXT ( ( #19 ) ) GLOBAL_UNIT_ASSIGNED_CONTEXT ( ( #157, #215, #354 ) ) REPRESENTATION_CONTEXT ( 'NONE', 'WORKASPACE' ) );
#199 = AXIS2_PLACEMENT_3D ( 'NONE', #82, #22, #307 ) ;
#200 = CYLINDRICAL_SURFACE ( 'NONE', #359, 0.9000000000000000200 ) ;
#201 = ADVANCED_FACE ( 'NONE', ( #317 ), #228, .T. ) ;
#202 = ORIENTED_EDGE ( 'NONE', *, *, #285, .T. ) ;
#203 = PRESENTATION_LAYER_ASSIGNMENT (  '', '', ( #141 ) ) ;
#204 = ORIENTED_EDGE ( 'NONE', *, *, #329, .F. ) ;
#205 = DIRECTION ( 'NONE',  ( 1.000000000000000000, 2.296212748401287100E-017, -0.0000000000000000000 ) ) ;
#206 = ADVANCED_FACE ( 'NONE', ( #253, #231 ), #262, .F. ) ;
#207 = CARTESIAN_POINT ( 'NONE',  ( 4.000000000000000000, 9.184850993605148400E-017, 0.0000000000000000000 ) ) ;
#208 = CIRCLE ( 'NONE', #233, 0.9000000000000000200 ) ;
#209 = DIRECTION ( 'NONE',  ( 0.0000000000000000000, 1.000000000000000000, 0.0000000000000000000 ) ) ;
#210 = SURFACE_STYLE_FILL_AREA ( #25 ) ;
#211 = LINE ( 'NONE', #136, #173 ) ;
#212 = FACE_OUTER_BOUND ( 'NONE', #52, .T. ) ;
#213 = FILL_AREA_STYLE ('',( #96 ) ) ;
#214 = DIRECTION ( 'NONE',  ( 0.0000000000000000000, 1.000000000000000000, 0.0000000000000000000 ) ) ;
#215 =( NAMED_UNIT ( * ) PLANE_ANGLE_UNIT ( ) SI_UNIT ( $, .RADIAN. ) );
#216 = DIRECTION ( 'NONE',  ( 0.0000000000000000000, 1.000000000000000000, 0.0000000000000000000 ) ) ;
#217 = LINE ( 'NONE', #33, #133 ) ;
#218 = MANIFOLD_SOLID_BREP ( 'Fase1', #146 ) ;
#219 = ORIENTED_EDGE ( 'NONE', *, *, #272, .T. ) ;
#220 = ORIENTED_EDGE ( 'NONE', *, *, #78, .T. ) ;
#221 = AXIS2_PLACEMENT_3D ( 'NONE', #343, #229, #142 ) ;
#222 = ORIENTED_EDGE ( 'NONE', *, *, #174, .T. ) ;
#223 = CARTESIAN_POINT ( 'NONE',  ( 2.500000000000000000, 5.740531871003217500E-017, 0.0000000000000000000 ) ) ;
#224 = FILL_AREA_STYLE_COLOUR ( '', #366 ) ;
#225 = CIRCLE ( 'NONE', #131, 0.7500000000000004400 ) ;
#226 = VERTEX_POINT ( 'NONE', #363 ) ;
#227 = EDGE_CURVE ( 'NONE', #325, #275, #277, .T. ) ;
#228 = CYLINDRICAL_SURFACE ( 'NONE', #187, 0.5000000000000003300 ) ;
#229 = DIRECTION ( 'NONE',  ( 1.000000000000000000, 2.296212748401287100E-017, -0.0000000000000000000 ) ) ;
#230 = AXIS2_PLACEMENT_3D ( 'NONE', #349, #63, #67 ) ;
#231 = FACE_OUTER_BOUND ( 'NONE', #23, .T. ) ;
#232 = DIRECTION ( 'NONE',  ( 0.0000000000000000000, 1.000000000000000000, 0.0000000000000000000 ) ) ;
#233 = AXIS2_PLACEMENT_3D ( 'NONE', #265, #190, #70 ) ;
#234 = CIRCLE ( 'NONE', #364, 0.9000000000000000200 ) ;
#235 = ADVANCED_FACE ( 'NONE', ( #87 ), #297, .T. ) ;
#236 =( GEOMETRIC_REPRESENTATION_CONTEXT ( 3 ) GLOBAL_UNCERTAINTY_ASSIGNED_CONTEXT ( ( #10 ) ) GLOBAL_UNIT_ASSIGNED_CONTEXT ( ( #372, #196, #250 ) ) REPRESENTATION_CONTEXT ( 'NONE', 'WORKASPACE' ) );
#237 = CARTESIAN_POINT ( 'NONE',  ( 2.500000000000000000, 5.740531871003217500E-017, 0.0000000000000000000 ) ) ;
#238 = ORIENTED_EDGE ( 'NONE', *, *, #376, .F. ) ;
#239 = COLOUR_RGB ( '',0.6470588235294118000, 0.5176470588235293500, 0.0000000000000000000 ) ;
#240 = CARTESIAN_POINT ( 'NONE',  ( 2.299999999999999800, 5.281289321322959200E-017, 0.0000000000000000000 ) ) ;
#241 = DIRECTION ( 'NONE',  ( -1.000000000000000000, -2.296212748401287100E-017, 0.0000000000000000000 ) ) ;
#242 = EDGE_LOOP ( 'NONE', ( #91, #369 ) ) ;
#243 = CARTESIAN_POINT ( 'NONE',  ( 3.500000000000000400, -0.5000000000000002200, 6.123233995736771000E-017 ) ) ;
#244 = EDGE_CURVE ( 'NONE', #191, #340, #211, .T. ) ;
#245 = SHAPE_DEFINITION_REPRESENTATION ( #97, #194 ) ;
#246 = DIRECTION ( 'NONE',  ( 1.000000000000000000, 2.296212748401287100E-017, -0.0000000000000000000 ) ) ;
#247 = ORIENTED_EDGE ( 'NONE', *, *, #300, .F. ) ;
#248 = ORIENTED_EDGE ( 'NONE', *, *, #362, .T. ) ;
#249 = CARTESIAN_POINT ( 'NONE',  ( 2.500000000000000000, 5.740531871003217500E-017, 0.0000000000000000000 ) ) ;
#250 =( NAMED_UNIT ( * ) SI_UNIT ( $, .STERADIAN. ) SOLID_ANGLE_UNIT ( ) );
#251 = VERTEX_POINT ( 'NONE', #158 ) ;
#252 = ORIENTED_EDGE ( 'NONE', *, *, #227, .T. ) ;
#253 = FACE_BOUND ( 'NONE', #242, .T. ) ;
#254 = APPLICATION_CONTEXT ( 'automotive_design' ) ;
#255 = EDGE_CURVE ( 'NONE', #164, #113, #282, .T. ) ;
#256 = FACE_OUTER_BOUND ( 'NONE', #269, .T. ) ;
#257 = CARTESIAN_POINT ( 'NONE',  ( 3.500000000000000000, -2.168404344971008900E-016, 0.0000000000000000000 ) ) ;
#258 = AXIS2_PLACEMENT_3D ( 'NONE', #102, #18, #270 ) ;
#259 = SURFACE_STYLE_FILL_AREA ( #213 ) ;
#260 = DIRECTION ( 'NONE',  ( 0.0000000000000000000, -1.000000000000000000, 0.0000000000000000000 ) ) ;
#261 = EDGE_LOOP ( 'NONE', ( #348, #315, #28, #161 ) ) ;
#262 = PLANE ( 'NONE',  #182 ) ;
#263 = VECTOR ( 'NONE', #38, 999.9999999999998900 ) ;
#264 = CARTESIAN_POINT ( 'NONE',  ( 2.299999999999999800, -0.7500000000000004400, 9.184850993605154600E-017 ) ) ;
#265 = CARTESIAN_POINT ( 'NONE',  ( 0.0000000000000000000, -1.203706215242022400E-032, 0.0000000000000000000 ) ) ;
#266 = ORIENTED_EDGE ( 'NONE', *, *, #339, .F. ) ;
#267 = CARTESIAN_POINT ( 'NONE',  ( 2.500000000000000000, -0.5500000000000003800, 0.0000000000000000000 ) ) ;
#268 = CARTESIAN_POINT ( 'NONE',  ( 2.500000000000000000, 5.740531871003217500E-017, 0.0000000000000000000 ) ) ;
#269 = EDGE_LOOP ( 'NONE', ( #219, #148, #222, #132 ) ) ;
#270 = DIRECTION ( 'NONE',  ( 0.0000000000000000000, 1.000000000000000000, 0.0000000000000000000 ) ) ;
#271 = DIRECTION ( 'NONE',  ( 1.000000000000000000, 2.296212748401287100E-017, -0.0000000000000000000 ) ) ;
#272 = EDGE_CURVE ( 'NONE', #226, #287, #360, .T. ) ;
#273 = DIRECTION ( 'NONE',  ( 1.000000000000000000, 2.296212748401287100E-017, -0.0000000000000000000 ) ) ;
#274 = CIRCLE ( 'NONE', #62, 0.5000000000000003300 ) ;
#275 = VERTEX_POINT ( 'NONE', #264 ) ;
#276 = ORIENTED_EDGE ( 'NONE', *, *, #373, .F. ) ;
#277 = LINE ( 'NONE', #327, #263 ) ;
#278 = ADVANCED_FACE ( 'NONE', ( #54 ), #73, .T. ) ;
#279 = SPHERICAL_SURFACE ( 'NONE', #129, 0.5000000000000000000 ) ;
#280 = ORIENTED_EDGE ( 'NONE', *, *, #285, .F. ) ;
#281 = CARTESIAN_POINT ( 'NONE',  ( 3.500000000000000400, 8.036744619404505200E-017, 0.0000000000000000000 ) ) ;
#282 = CIRCLE ( 'NONE', #171, 0.5000000000000000000 ) ;
#283 =( NAMED_UNIT ( * ) PLANE_ANGLE_UNIT ( ) SI_UNIT ( $, .RADIAN. ) );
#284 = CARTESIAN_POINT ( 'NONE',  ( 0.4000000000000001900, 0.9000000000000000200, 0.0000000000000000000 ) ) ;
#285 = EDGE_CURVE ( 'NONE', #251, #85, #135, .T. ) ;
#286 = ORIENTED_EDGE ( 'NONE', *, *, #255, .T. ) ;
#287 = VERTEX_POINT ( 'NONE', #42 ) ;
#288 = CARTESIAN_POINT ( 'NONE',  ( 4.000000000000000000, 0.7500000000000005600, 0.0000000000000000000 ) ) ;
#289 = CIRCLE ( 'NONE', #199, 0.5500000000000004900 ) ;
#290 = SURFACE_SIDE_STYLE ('',( #259 ) ) ;
#291 = DIRECTION ( 'NONE',  ( 1.000000000000000000, 2.296212748401287100E-017, -0.0000000000000000000 ) ) ;
#292 = CYLINDRICAL_SURFACE ( 'NONE', #330, 0.5000000000000003300 ) ;
#293 = DIRECTION ( 'NONE',  ( 0.0000000000000000000, 1.000000000000000000, 0.0000000000000000000 ) ) ;
#294 = CARTESIAN_POINT ( 'NONE',  ( 4.000000000000000000, -2.359755407337783000E-016, 0.0000000000000000000 ) ) ;
#295 = AXIS2_PLACEMENT_3D ( 'NONE', #140, #162, #105 ) ;
#296 = DIRECTION ( 'NONE',  ( 0.0000000000000000000, 1.000000000000000000, 0.0000000000000000000 ) ) ;
#297 = CYLINDRICAL_SURFACE ( 'NONE', #30, 0.9000000000000000200 ) ;
#298 = DIRECTION ( 'NONE',  ( 0.0000000000000000000, 0.0000000000000000000, -1.000000000000000000 ) ) ;
#299 = LINE ( 'NONE', #98, #116 ) ;
#300 = EDGE_CURVE ( 'NONE', #191, #345, #48, .T. ) ;
#301 = DIRECTION ( 'NONE',  ( 0.0000000000000000000, 1.000000000000000000, 0.0000000000000000000 ) ) ;
#302 = ORIENTED_EDGE ( 'NONE', *, *, #108, .F. ) ;
#303 = CYLINDRICAL_SURFACE ( 'NONE', #60, 0.7500000000000004400 ) ;
#304 = EDGE_CURVE ( 'NONE', #85, #251, #234, .T. ) ;
#305 = ORIENTED_EDGE ( 'NONE', *, *, #2, .T. ) ;
#306 = CARTESIAN_POINT ( 'NONE',  ( 2.500000000000000000, -0.5000000000000002200, 6.123233995736771000E-017 ) ) ;
#307 = DIRECTION ( 'NONE',  ( 0.0000000000000000000, -1.000000000000000000, 0.0000000000000000000 ) ) ;
#308 = CIRCLE ( 'NONE', #95, 0.5000000000000003300 ) ;
#309 = UNCERTAINTY_MEASURE_WITH_UNIT (LENGTH_MEASURE( 1.000000000000000100E-005 ), #347, 'distance_accuracy_value', 'NONE');
#310 = EDGE_CURVE ( 'NONE', #287, #226, #197, .T. ) ;
#311 = PRODUCT_DEFINITION ( 'UNKNOWN', '', #355, #117 ) ;
#312 = ORIENTED_EDGE ( 'NONE', *, *, #373, .T. ) ;
#313 = PRODUCT_CONTEXT ( 'NONE', #175, 'mechanical' ) ;
#314 = ORIENTED_EDGE ( 'NONE', *, *, #329, .T. ) ;
#315 = ORIENTED_EDGE ( 'NONE', *, *, #310, .T. ) ;
#316 =( GEOMETRIC_REPRESENTATION_CONTEXT ( 3 ) GLOBAL_UNCERTAINTY_ASSIGNED_CONTEXT ( ( #309 ) ) GLOBAL_UNIT_ASSIGNED_CONTEXT ( ( #347, #283, #89 ) ) REPRESENTATION_CONTEXT ( 'NONE', 'WORKASPACE' ) );
#317 = FACE_OUTER_BOUND ( 'NONE', #346, .T. ) ;
#318 = ORIENTED_EDGE ( 'NONE', *, *, #376, .T. ) ;
#319 = AXIS2_PLACEMENT_3D ( 'NONE', #130, #298, #137 ) ;
#320 = DIRECTION ( 'NONE',  ( 1.000000000000000000, 2.296212748401287100E-017, -0.0000000000000000000 ) ) ;
#321 = PRESENTATION_STYLE_ASSIGNMENT (( #160 ) ) ;
#322 = EDGE_CURVE ( 'NONE', #118, #325, #189, .T. ) ;
#323 = EDGE_LOOP ( 'NONE', ( #302, #266, #252, #55 ) ) ;
#324 = DIRECTION ( 'NONE',  ( -0.7071067811865477900, 0.7071067811865473500, 8.659560562354931600E-017 ) ) ;
#325 = VERTEX_POINT ( 'NONE', #267 ) ;
#326 = AXIS2_PLACEMENT_3D ( 'NONE', #9, #4, #92 ) ;
#327 = CARTESIAN_POINT ( 'NONE',  ( 2.500000000000000000, -0.5500000000000003800, 0.0000000000000000000 ) ) ;
#328 = CARTESIAN_POINT ( 'NONE',  ( 4.000000000000000000, 9.184850993605148400E-017, 0.0000000000000000000 ) ) ;
#329 = EDGE_CURVE ( 'NONE', #345, #191, #274, .T. ) ;
#330 = AXIS2_PLACEMENT_3D ( 'NONE', #66, #320, #90 ) ;
#331 = DIRECTION ( 'NONE',  ( 0.0000000000000000000, -1.000000000000000000, 0.0000000000000000000 ) ) ;
#332 = STYLED_ITEM ( 'NONE', ( #139 ), #194 ) ;
#333 = EDGE_CURVE ( 'NONE', #340, #113, #7, .T. ) ;
#334 = DIRECTION ( 'NONE',  ( 1.000000000000000000, 2.296212748401287100E-017, -0.0000000000000000000 ) ) ;
#335 = FACE_OUTER_BOUND ( 'NONE', #34, .T. ) ;
#336 = DIRECTION ( 'NONE',  ( 0.0000000000000000000, 1.000000000000000000, 0.0000000000000000000 ) ) ;
#337 = PRODUCT_RELATED_PRODUCT_CATEGORY ( 'part', '', ( #53 ) ) ;
#338 = AXIS2_PLACEMENT_3D ( 'NONE', #31, #241, #12 ) ;
#339 = EDGE_CURVE ( 'NONE', #325, #118, #289, .T. ) ;
#340 = VERTEX_POINT ( 'NONE', #367 ) ;
#341 = AXIS2_PLACEMENT_3D ( 'NONE', #249, #246, #301 ) ;
#342 = DIRECTION ( 'NONE',  ( 1.000000000000000000, 2.296212748401287100E-017, -0.0000000000000000000 ) ) ;
#343 = CARTESIAN_POINT ( 'NONE',  ( 0.0000000000000000000, -1.203706215242022400E-032, 0.0000000000000000000 ) ) ;
#344 = ORIENTED_EDGE ( 'NONE', *, *, #322, .T. ) ;
#345 = VERTEX_POINT ( 'NONE', #306 ) ;
#346 = EDGE_LOOP ( 'NONE', ( #238, #314, #114, #58 ) ) ;
#347 =( LENGTH_UNIT ( ) NAMED_UNIT ( * ) SI_UNIT ( .MILLI., .METRE. ) );
#348 = ORIENTED_EDGE ( 'NONE', *, *, #365, .F. ) ;
#349 = CARTESIAN_POINT ( 'NONE',  ( 4.477614859382509600E-017, 1.028155632254515400E-033, 0.0000000000000000000 ) ) ;
#350 = CARTESIAN_POINT ( 'NONE',  ( 3.500000000000000400, 8.036744619404505200E-017, 0.0000000000000000000 ) ) ;
#351 = ORIENTED_EDGE ( 'NONE', *, *, #339, .T. ) ;
#352 = PRESENTATION_LAYER_ASSIGNMENT (  '', '', ( #332 ) ) ;
#353 = PLANE ( 'NONE',  #338 ) ;
#354 =( NAMED_UNIT ( * ) SI_UNIT ( $, .STERADIAN. ) SOLID_ANGLE_UNIT ( ) );
#355 = PRODUCT_DEFINITION_FORMATION_WITH_SPECIFIED_SOURCE ( 'ANY', '', #53, .NOT_KNOWN. ) ;
#356 = CARTESIAN_POINT ( 'NONE',  ( -2.066591473561158300E-017, 0.9000000000000000200, 0.0000000000000000000 ) ) ;
#357 = VERTEX_POINT ( 'NONE', #103 ) ;
#358 = ORIENTED_EDGE ( 'NONE', *, *, #362, .F. ) ;
#359 = AXIS2_PLACEMENT_3D ( 'NONE', #328, #291, #216 ) ;
#360 = CIRCLE ( 'NONE', #258, 0.7500000000000004400 ) ;
#361 = CARTESIAN_POINT ( 'NONE',  ( 0.4000000000000001300, -0.9000000000000000200, 0.0000000000000000000 ) ) ;
#362 = EDGE_CURVE ( 'NONE', #119, #251, #112, .T. ) ;
#363 = CARTESIAN_POINT ( 'NONE',  ( 0.4000000000000001900, 0.7500000000000004400, 0.0000000000000000000 ) ) ;
#364 = AXIS2_PLACEMENT_3D ( 'NONE', #193, #271, #336 ) ;
#365 = EDGE_CURVE ( 'NONE', #287, #275, #370, .T. ) ;
#366 = COLOUR_RGB ( '',0.6470588235294118000, 0.5176470588235293500, 0.0000000000000000000 ) ;
#367 = CARTESIAN_POINT ( 'NONE',  ( 3.500000000000000400, 0.5000000000000004400, 0.0000000000000000000 ) ) ;
#368 = ORIENTED_EDGE ( 'NONE', *, *, #322, .F. ) ;
#369 = ORIENTED_EDGE ( 'NONE', *, *, #310, .F. ) ;
#370 = LINE ( 'NONE', #371, #72 ) ;
#371 = CARTESIAN_POINT ( 'NONE',  ( 4.000000000000000000, -0.7500000000000003300, 9.184850993605154600E-017 ) ) ;
#372 =( LENGTH_UNIT ( ) NAMED_UNIT ( * ) SI_UNIT ( .MILLI., .METRE. ) );
#373 = EDGE_CURVE ( 'NONE', #119, #145, #166, .T. ) ;
#374 = EDGE_LOOP ( 'NONE', ( #351, #344 ) ) ;
#375 = APPLICATION_PROTOCOL_DEFINITION ( 'draft international standard', 'automotive_design', 1998, #175 ) ;
#376 = EDGE_CURVE ( 'NONE', #345, #164, #86, .T. ) ;
ENDSEC;
END-ISO-10303-21;
