ISO-10303-21;
HEADER;
FILE_DESCRIPTION (( 'STEP AP214' ),
    '1' );
FILE_NAME ('UEBK-12771.STEP',
    '2015-09-23T14:13:08',
    ( '' ),
    ( '' ),
    'SwSTEP 2.0',
    'SolidWorks 2015',
    '' );
FILE_SCHEMA (( 'AUTOMOTIVE_DESIGN' ));
ENDSEC;

DATA;
#1 = ORIENTED_EDGE ( 'NONE', *, *, #234, .F. ) ;
#2 = AXIS2_PLACEMENT_3D ( 'NONE', #337, #365, #162 ) ;
#3 = ORIENTED_EDGE ( 'NONE', *, *, #204, .F. ) ;
#4 = FACE_OUTER_BOUND ( 'NONE', #62, .T. ) ;
#5 = CARTESIAN_POINT ( 'NONE',  ( 1.799999999999999200, -0.6250000000000003300, 7.654042494670964000E-017 ) ) ;
#6 = CARTESIAN_POINT ( 'NONE',  ( 1.799999999999999200, 6.443526235513764600E-017, 0.0000000000000000000 ) ) ;
#7 = EDGE_CURVE ( 'NONE', #346, #184, #186, .T. ) ;
#8 = VECTOR ( 'NONE', #348, 1000.000000000000000 ) ;
#9 = PRODUCT_DEFINITION_CONTEXT ( 'detailed design', #336, 'design' ) ;
#10 = VERTEX_POINT ( 'NONE', #5 ) ;
#11 = VERTEX_POINT ( 'NONE', #154 ) ;
#12 = CIRCLE ( 'NONE', #2, 0.4000000000000003000 ) ;
#13 = CARTESIAN_POINT ( 'NONE',  ( 3.249999999999999600, -1.106729773710187500E-016, 0.0000000000000000000 ) ) ;
#14 = EDGE_CURVE ( 'NONE', #151, #10, #61, .T. ) ;
#15 = APPLICATION_PROTOCOL_DEFINITION ( 'draft international standard', 'automotive_design', 1998, #336 ) ;
#16 = FILL_AREA_STYLE ('',( #342 ) ) ;
#17 = SPHERICAL_SURFACE ( 'NONE', #127, 0.4000000000000003000 ) ;
#18 = DIRECTION ( 'NONE',  ( 1.000000000000000000, 3.579736797507650100E-017, -0.0000000000000000000 ) ) ;
#19 =( GEOMETRIC_REPRESENTATION_CONTEXT ( 3 ) GLOBAL_UNCERTAINTY_ASSIGNED_CONTEXT ( ( #124 ) ) GLOBAL_UNIT_ASSIGNED_CONTEXT ( ( #118, #281, #146 ) ) REPRESENTATION_CONTEXT ( 'NONE', 'WORKASPACE' ) );
#20 = CARTESIAN_POINT ( 'NONE',  ( 3.250000000000000000, 0.4000000000000004100, 0.0000000000000000000 ) ) ;
#21 = COLOUR_RGB ( '',0.6470588235294118000, 0.5176470588235293500, 0.0000000000000000000 ) ;
#22 = ORIENTED_EDGE ( 'NONE', *, *, #123, .T. ) ;
#23 = VECTOR ( 'NONE', #225, 1000.000000000000000 ) ;
#24 = ORIENTED_EDGE ( 'NONE', *, *, #289, .T. ) ;
#25 = EDGE_LOOP ( 'NONE', ( #179, #24, #231, #113 ) ) ;
#26 = SURFACE_STYLE_USAGE ( .BOTH. , #317 ) ;
#27 = FACE_OUTER_BOUND ( 'NONE', #226, .T. ) ;
#28 = DIRECTION ( 'NONE',  ( 1.000000000000000000, 0.0000000000000000000, 0.0000000000000000000 ) ) ;
#29 = AXIS2_PLACEMENT_3D ( 'NONE', #235, #293, #265 ) ;
#30 = EDGE_LOOP ( 'NONE', ( #325, #69, #243, #37 ) ) ;
#31 = CONICAL_SURFACE ( 'NONE', #357, 0.4249999999999996000, 0.7853981633974479500 ) ;
#32 = ORIENTED_EDGE ( 'NONE', *, *, #270, .T. ) ;
#33 = EDGE_CURVE ( 'NONE', #217, #11, #254, .T. ) ;
#34 = CIRCLE ( 'NONE', #368, 0.4249999999999996000 ) ;
#35 = DIRECTION ( 'NONE',  ( 0.0000000000000000000, -1.000000000000000000, 0.0000000000000000000 ) ) ;
#36 = AXIS2_PLACEMENT_3D ( 'NONE', #102, #340, #169 ) ;
#37 = ORIENTED_EDGE ( 'NONE', *, *, #14, .F. ) ;
#38 = PRODUCT ( 'UEBK-12771', 'UEBK-12771', '', ( #132 ) ) ;
#39 = UNCERTAINTY_MEASURE_WITH_UNIT (LENGTH_MEASURE( 1.000000000000000100E-005 ), #366, 'distance_accuracy_value', 'NONE');
#40 = ORIENTED_EDGE ( 'NONE', *, *, #284, .T. ) ;
#41 = DIRECTION ( 'NONE',  ( 1.000000000000000000, 3.579736797507650100E-017, -0.0000000000000000000 ) ) ;
#42 = DIRECTION ( 'NONE',  ( 1.000000000000000000, 0.0000000000000000000, 0.0000000000000000000 ) ) ;
#43 = EDGE_LOOP ( 'NONE', ( #240, #172, #371, #112 ) ) ;
#44 = CIRCLE ( 'NONE', #320, 0.4000000000000001900 ) ;
#45 = DIRECTION ( 'NONE',  ( 1.000000000000000000, 3.579736797507650100E-017, -0.0000000000000000000 ) ) ;
#46 = CARTESIAN_POINT ( 'NONE',  ( 2.000000000000000000, 7.159473595015299000E-017, 0.0000000000000000000 ) ) ;
#47 = CARTESIAN_POINT ( 'NONE',  ( 2.000000000000000000, 7.159473595015299000E-017, 0.0000000000000000000 ) ) ;
#48 = AXIS2_PLACEMENT_3D ( 'NONE', #291, #153, #215 ) ;
#49 = AXIS2_PLACEMENT_3D ( 'NONE', #46, #341, #161 ) ;
#50 = DIRECTION ( 'NONE',  ( 0.0000000000000000000, 0.0000000000000000000, 1.000000000000000000 ) ) ;
#51 = DIRECTION ( 'NONE',  ( 1.000000000000000000, 3.579736797507650100E-017, -0.0000000000000000000 ) ) ;
#52 = FACE_OUTER_BOUND ( 'NONE', #30, .T. ) ;
#53 = ORIENTED_EDGE ( 'NONE', *, *, #54, .T. ) ;
#54 = EDGE_CURVE ( 'NONE', #187, #101, #129, .T. ) ;
#55 = LINE ( 'NONE', #364, #323 ) ;
#56 =( GEOMETRIC_REPRESENTATION_CONTEXT ( 3 ) GLOBAL_UNCERTAINTY_ASSIGNED_CONTEXT ( ( #39 ) ) GLOBAL_UNIT_ASSIGNED_CONTEXT ( ( #366, #272, #77 ) ) REPRESENTATION_CONTEXT ( 'NONE', 'WORKASPACE' ) );
#57 = DIRECTION ( 'NONE',  ( 0.0000000000000000000, 0.0000000000000000000, 1.000000000000000000 ) ) ;
#58 = CARTESIAN_POINT ( 'NONE',  ( 0.2999999999999999300, 0.6250000000000004400, 0.0000000000000000000 ) ) ;
#59 = PRODUCT_DEFINITION_SHAPE ( 'NONE', 'NONE',  #116 ) ;
#60 = AXIS2_PLACEMENT_3D ( 'NONE', #47, #119, #95 ) ;
#61 = CIRCLE ( 'NONE', #224, 0.6250000000000004400 ) ;
#62 = EDGE_LOOP ( 'NONE', ( #232, #345, #230, #358 ) ) ;
#63 = CIRCLE ( 'NONE', #67, 1.000000000000000000 ) ;
#64 = DIRECTION ( 'NONE',  ( 1.000000000000000000, 3.579736797507650100E-017, -0.0000000000000000000 ) ) ;
#65 = DIRECTION ( 'NONE',  ( 1.000000000000000000, 3.579736797507650100E-017, -0.0000000000000000000 ) ) ;
#66 = EDGE_CURVE ( 'NONE', #251, #288, #354, .T. ) ;
#67 = AXIS2_PLACEMENT_3D ( 'NONE', #273, #369, #249 ) ;
#68 = ORIENTED_EDGE ( 'NONE', *, *, #90, .F. ) ;
#69 = ORIENTED_EDGE ( 'NONE', *, *, #54, .F. ) ;
#70 = DIRECTION ( 'NONE',  ( 0.0000000000000000000, 1.000000000000000000, 0.0000000000000000000 ) ) ;
#71 = CYLINDRICAL_SURFACE ( 'NONE', #121, 0.4000000000000003000 ) ;
#72 = DIRECTION ( 'NONE',  ( 0.0000000000000000000, 1.000000000000000000, 0.0000000000000000000 ) ) ;
#73 = EDGE_CURVE ( 'NONE', #299, #219, #267, .T. ) ;
#74 = PRODUCT_DEFINITION_FORMATION_WITH_SPECIFIED_SOURCE ( 'ANY', '', #38, .NOT_KNOWN. ) ;
#75 =( LENGTH_UNIT ( ) NAMED_UNIT ( * ) SI_UNIT ( .MILLI., .METRE. ) );
#76 = DIRECTION ( 'NONE',  ( 0.0000000000000000000, 0.0000000000000000000, -1.000000000000000000 ) ) ;
#77 =( NAMED_UNIT ( * ) SI_UNIT ( $, .STERADIAN. ) SOLID_ANGLE_UNIT ( ) );
#78 = CIRCLE ( 'NONE', #96, 0.6250000000000004400 ) ;
#79 = EDGE_LOOP ( 'NONE', ( #88, #22, #3 ) ) ;
#80 = AXIS2_PLACEMENT_3D ( 'NONE', #131, #160, #70 ) ;
#81 = CARTESIAN_POINT ( 'NONE',  ( 2.000000000000000000, -0.6250000000000003300, 0.0000000000000000000 ) ) ;
#82 = EDGE_LOOP ( 'NONE', ( #228, #205 ) ) ;
#83 = CARTESIAN_POINT ( 'NONE',  ( 2.000000000000000000, 0.4249999999999996600, 5.204748896376246400E-017 ) ) ;
#84 = CARTESIAN_POINT ( 'NONE',  ( 3.250000000000000000, 1.163414459189986200E-016, 0.0000000000000000000 ) ) ;
#85 = CIRCLE ( 'NONE', #367, 1.000000000000000200 ) ;
#86 = AXIS2_PLACEMENT_3D ( 'NONE', #180, #356, #216 ) ;
#87 = ORIENTED_EDGE ( 'NONE', *, *, #174, .T. ) ;
#88 = ORIENTED_EDGE ( 'NONE', *, *, #100, .T. ) ;
#89 = ORIENTED_EDGE ( 'NONE', *, *, #140, .T. ) ;
#90 = EDGE_CURVE ( 'NONE', #10, #151, #202, .T. ) ;
#91 = DIRECTION ( 'NONE',  ( -1.000000000000000000, -3.579736797507658100E-017, 0.0000000000000000000 ) ) ;
#92 = PRODUCT_RELATED_PRODUCT_CATEGORY ( 'part', '', ( #38 ) ) ;
#93 = CARTESIAN_POINT ( 'NONE',  ( 1.799999999999999200, 6.443526235513764600E-017, 0.0000000000000000000 ) ) ;
#94 = CYLINDRICAL_SURFACE ( 'NONE', #109, 0.6250000000000004400 ) ;
#95 = DIRECTION ( 'NONE',  ( 0.0000000000000000000, 1.000000000000000000, 0.0000000000000000000 ) ) ;
#96 = AXIS2_PLACEMENT_3D ( 'NONE', #359, #64, #276 ) ;
#97 = EDGE_LOOP ( 'NONE', ( #331, #271, #176, #313 ) ) ;
#98 = VECTOR ( 'NONE', #344, 1000.000000000000000 ) ;
#99 = DIRECTION ( 'NONE',  ( 1.000000000000000000, 3.579736797507650100E-017, -0.0000000000000000000 ) ) ;
#100 = EDGE_CURVE ( 'NONE', #266, #347, #277, .T. ) ;
#101 = VERTEX_POINT ( 'NONE', #213 ) ;
#102 = CARTESIAN_POINT ( 'NONE',  ( 0.3000000000000001000, -1.000000000000000000, 0.0000000000000000000 ) ) ;
#103 = CARTESIAN_POINT ( 'NONE',  ( 0.0000000000000000000, 0.0000000000000000000, 0.0000000000000000000 ) ) ;
#104 = CARTESIAN_POINT ( 'NONE',  ( 1.799999999999999200, 0.6250000000000005600, 0.0000000000000000000 ) ) ;
#105 = ADVANCED_FACE ( 'NONE', ( #52 ), #31, .T. ) ;
#106 = CIRCLE ( 'NONE', #237, 0.4000000000000002400 ) ;
#107 = ADVANCED_FACE ( 'NONE', ( #263 ), #374, .T. ) ;
#108 = AXIS2_PLACEMENT_3D ( 'NONE', #198, #76, #257 ) ;
#109 = AXIS2_PLACEMENT_3D ( 'NONE', #305, #135, #190 ) ;
#110 = CARTESIAN_POINT ( 'NONE',  ( 2.849999999999999200, -0.4000000000000001300, 4.898587196589416200E-017 ) ) ;
#111 = DIRECTION ( 'NONE',  ( 3.579736797507650100E-017, -1.000000000000000000, 0.0000000000000000000 ) ) ;
#112 = ORIENTED_EDGE ( 'NONE', *, *, #14, .T. ) ;
#113 = ORIENTED_EDGE ( 'NONE', *, *, #270, .F. ) ;
#114 = DIRECTION ( 'NONE',  ( -0.7071067811865477900, -0.7071067811865473500, 0.0000000000000000000 ) ) ;
#115 = CARTESIAN_POINT ( 'NONE',  ( 3.250000000000000000, 1.163414459189986200E-016, 0.0000000000000000000 ) ) ;
#116 = PRODUCT_DEFINITION ( 'UNKNOWN', '', #74, #9 ) ;
#117 = CIRCLE ( 'NONE', #196, 1.000000000000000000 ) ;
#118 =( LENGTH_UNIT ( ) NAMED_UNIT ( * ) SI_UNIT ( .MILLI., .METRE. ) );
#119 = DIRECTION ( 'NONE',  ( 1.000000000000000000, 3.579736797507650100E-017, -0.0000000000000000000 ) ) ;
#120 = ORIENTED_EDGE ( 'NONE', *, *, #33, .F. ) ;
#121 = AXIS2_PLACEMENT_3D ( 'NONE', #84, #279, #143 ) ;
#122 = VECTOR ( 'NONE', #156, 1000.000000000000000 ) ;
#123 = EDGE_CURVE ( 'NONE', #347, #157, #12, .T. ) ;
#124 = UNCERTAINTY_MEASURE_WITH_UNIT (LENGTH_MEASURE( 1.000000000000000100E-005 ), #118, 'distance_accuracy_value', 'NONE');
#125 = CARTESIAN_POINT ( 'NONE',  ( 2.000000000000000000, 7.159473595015299000E-017, 0.0000000000000000000 ) ) ;
#126 = CARTESIAN_POINT ( 'NONE',  ( 3.250000000000000000, -0.9999999999999997800, 1.224646799147353200E-016 ) ) ;
#127 = AXIS2_PLACEMENT_3D ( 'NONE', #245, #362, #302 ) ;
#128 = STYLED_ITEM ( 'NONE', ( #280 ), #150 ) ;
#129 = CIRCLE ( 'NONE', #29, 0.4249999999999996000 ) ;
#130 = DIRECTION ( 'NONE',  ( 1.000000000000000000, 3.579736797507650100E-017, -0.0000000000000000000 ) ) ;
#131 = CARTESIAN_POINT ( 'NONE',  ( 3.250000000000000000, 1.163414459189986200E-016, 0.0000000000000000000 ) ) ;
#132 = PRODUCT_CONTEXT ( 'NONE', #303, 'mechanical' ) ;
#133 = FACE_OUTER_BOUND ( 'NONE', #25, .T. ) ;
#134 = ADVANCED_FACE ( 'NONE', ( #27 ), #17, .T. ) ;
#135 = DIRECTION ( 'NONE',  ( 1.000000000000000000, 3.579736797507650100E-017, -0.0000000000000000000 ) ) ;
#136 = CARTESIAN_POINT ( 'NONE',  ( 4.333365596982940100E-017, 1.551230828457353400E-033, 0.0000000000000000000 ) ) ;
#137 = DIRECTION ( 'NONE',  ( 0.0000000000000000000, -1.000000000000000000, 0.0000000000000000000 ) ) ;
#138 = ADVANCED_FACE ( 'NONE', ( #181 ), #314, .T. ) ;
#139 = ORIENTED_EDGE ( 'NONE', *, *, #316, .F. ) ;
#140 = EDGE_CURVE ( 'NONE', #11, #288, #85, .T. ) ;
#141 = DIRECTION ( 'NONE',  ( -1.000000000000000000, -3.579736797507650100E-017, 0.0000000000000000000 ) ) ;
#142 = EDGE_CURVE ( 'NONE', #299, #10, #294, .T. ) ;
#143 = DIRECTION ( 'NONE',  ( 0.0000000000000000000, 1.000000000000000000, 0.0000000000000000000 ) ) ;
#144 = EDGE_LOOP ( 'NONE', ( #201, #40, #32, #260 ) ) ;
#145 = FILL_AREA_STYLE_COLOUR ( '', #155 ) ;
#146 =( NAMED_UNIT ( * ) SI_UNIT ( $, .STERADIAN. ) SOLID_ANGLE_UNIT ( ) );
#147 = AXIS2_PLACEMENT_3D ( 'NONE', #220, #191, #335 ) ;
#148 = PRESENTATION_LAYER_ASSIGNMENT (  '', '', ( #128 ) ) ;
#149 = ORIENTED_EDGE ( 'NONE', *, *, #73, .F. ) ;
#150 = ADVANCED_BREP_SHAPE_REPRESENTATION ( 'UEBK-12771', ( #189, #285 ), #56 ) ;
#151 = VERTEX_POINT ( 'NONE', #104 ) ;
#152 = FACE_OUTER_BOUND ( 'NONE', #82, .T. ) ;
#153 = DIRECTION ( 'NONE',  ( 1.000000000000000000, 3.579736797507650100E-017, -0.0000000000000000000 ) ) ;
#154 = CARTESIAN_POINT ( 'NONE',  ( 0.2999999999999998800, 1.000000000000000200, 0.0000000000000000000 ) ) ;
#155 = COLOUR_RGB ( '',0.6470588235294118000, 0.5176470588235293500, 0.0000000000000000000 ) ;
#156 = DIRECTION ( 'NONE',  ( 1.000000000000000000, 3.579736797507650100E-017, -0.0000000000000000000 ) ) ;
#157 = VERTEX_POINT ( 'NONE', #13 ) ;
#158 = PRESENTATION_LAYER_ASSIGNMENT (  '', '', ( #329 ) ) ;
#159 = ORIENTED_EDGE ( 'NONE', *, *, #306, .T. ) ;
#160 = DIRECTION ( 'NONE',  ( 1.000000000000000000, 3.579736797507650100E-017, -0.0000000000000000000 ) ) ;
#161 = DIRECTION ( 'NONE',  ( 0.0000000000000000000, 1.000000000000000000, 0.0000000000000000000 ) ) ;
#162 = DIRECTION ( 'NONE',  ( 0.0000000000000000000, 1.000000000000000000, -1.224646799147353200E-016 ) ) ;
#163 = CARTESIAN_POINT ( 'NONE',  ( 0.2999999999999999900, -1.000000000000000200, 1.224646799147353500E-016 ) ) ;
#164 = FACE_OUTER_BOUND ( 'NONE', #361, .T. ) ;
#165 = MECHANICAL_DESIGN_GEOMETRIC_PRESENTATION_REPRESENTATION (  '', ( #128 ), #182 ) ;
#166 =( NAMED_UNIT ( * ) SI_UNIT ( $, .STERADIAN. ) SOLID_ANGLE_UNIT ( ) );
#167 = ADVANCED_FACE ( 'NONE', ( #164 ), #212, .T. ) ;
#168 = CARTESIAN_POINT ( 'NONE',  ( 0.2999999999999999300, 1.073921039252292900E-017, 0.0000000000000000000 ) ) ;
#169 = DIRECTION ( 'NONE',  ( 3.579736797507650100E-017, -1.000000000000000000, 0.0000000000000000000 ) ) ;
#170 = EDGE_LOOP ( 'NONE', ( #89, #372 ) ) ;
#171 = VECTOR ( 'NONE', #99, 1000.000000000000000 ) ;
#172 = ORIENTED_EDGE ( 'NONE', *, *, #73, .T. ) ;
#173 = ADVANCED_FACE ( 'NONE', ( #242 ), #319, .T. ) ;
#174 = EDGE_CURVE ( 'NONE', #347, #266, #106, .T. ) ;
#175 = DIRECTION ( 'NONE',  ( 1.000000000000000000, 3.579736797507650100E-017, -0.0000000000000000000 ) ) ;
#176 = ORIENTED_EDGE ( 'NONE', *, *, #90, .T. ) ;
#177 = FACE_OUTER_BOUND ( 'NONE', #144, .T. ) ;
#178 = ORIENTED_EDGE ( 'NONE', *, *, #214, .F. ) ;
#179 = ORIENTED_EDGE ( 'NONE', *, *, #7, .T. ) ;
#180 = CARTESIAN_POINT ( 'NONE',  ( 2.849999999999999200, 1.020224987289679800E-016, 0.0000000000000000000 ) ) ;
#181 = FACE_OUTER_BOUND ( 'NONE', #97, .T. ) ;
#182 =( GEOMETRIC_REPRESENTATION_CONTEXT ( 3 ) GLOBAL_UNCERTAINTY_ASSIGNED_CONTEXT ( ( #311 ) ) GLOBAL_UNIT_ASSIGNED_CONTEXT ( ( #75, #246, #166 ) ) REPRESENTATION_CONTEXT ( 'NONE', 'WORKASPACE' ) );
#183 = ADVANCED_FACE ( 'NONE', ( #236, #223 ), #188, .F. ) ;
#184 = VERTEX_POINT ( 'NONE', #298 ) ;
#185 = VECTOR ( 'NONE', #114, 1000.000000000000000 ) ;
#186 = CIRCLE ( 'NONE', #60, 0.4000000000000003000 ) ;
#187 = VERTEX_POINT ( 'NONE', #286 ) ;
#188 = PLANE ( 'NONE',  #36 ) ;
#189 = MANIFOLD_SOLID_BREP ( 'Fase1', #324 ) ;
#190 = DIRECTION ( 'NONE',  ( 0.0000000000000000000, 1.000000000000000000, 0.0000000000000000000 ) ) ;
#191 = DIRECTION ( 'NONE',  ( -1.000000000000000000, -3.579736797507658100E-017, 0.0000000000000000000 ) ) ;
#192 = SURFACE_SIDE_STYLE ('',( #360 ) ) ;
#193 = DIRECTION ( 'NONE',  ( 1.000000000000000000, 3.579736797507650100E-017, -0.0000000000000000000 ) ) ;
#194 = EDGE_CURVE ( 'NONE', #101, #151, #233, .T. ) ;
#195 = FACE_BOUND ( 'NONE', #321, .T. ) ;
#196 = AXIS2_PLACEMENT_3D ( 'NONE', #199, #18, #310 ) ;
#197 = CARTESIAN_POINT ( 'NONE',  ( 2.849999999999999200, 0.4000000000000003600, 0.0000000000000000000 ) ) ;
#198 = CARTESIAN_POINT ( 'NONE',  ( 2.849999999999999200, -1.004989885781022800E-016, 0.0000000000000000000 ) ) ;
#199 = CARTESIAN_POINT ( 'NONE',  ( 0.0000000000000000000, -2.407412430484044800E-032, 0.0000000000000000000 ) ) ;
#200 = CARTESIAN_POINT ( 'NONE',  ( 3.250000000000000000, 0.6250000000000005600, 0.0000000000000000000 ) ) ;
#201 = ORIENTED_EDGE ( 'NONE', *, *, #289, .F. ) ;
#202 = CIRCLE ( 'NONE', #343, 0.6250000000000004400 ) ;
#203 = ADVANCED_FACE ( 'NONE', ( #4 ), #301, .T. ) ;
#204 = EDGE_CURVE ( 'NONE', #266, #157, #44, .T. ) ;
#205 = ORIENTED_EDGE ( 'NONE', *, *, #352, .F. ) ;
#206 = DIRECTION ( 'NONE',  ( 0.0000000000000000000, 1.000000000000000000, 0.0000000000000000000 ) ) ;
#207 = ADVANCED_FACE ( 'NONE', ( #133 ), #363, .T. ) ;
#208 = PRESENTATION_STYLE_ASSIGNMENT (( #26 ) ) ;
#209 = CARTESIAN_POINT ( 'NONE',  ( 2.849999999999999200, -1.004989885781022800E-016, 0.0000000000000000000 ) ) ;
#210 = AXIS2_PLACEMENT_3D ( 'NONE', #268, #193, #72 ) ;
#211 = VECTOR ( 'NONE', #65, 1000.000000000000000 ) ;
#212 = CYLINDRICAL_SURFACE ( 'NONE', #80, 1.000000000000000000 ) ;
#213 = CARTESIAN_POINT ( 'NONE',  ( 2.000000000000000000, 0.4249999999999996600, 6.429395695523604900E-017 ) ) ;
#214 = EDGE_CURVE ( 'NONE', #187, #10, #350, .T. ) ;
#215 = DIRECTION ( 'NONE',  ( 0.0000000000000000000, 1.000000000000000000, 0.0000000000000000000 ) ) ;
#216 = DIRECTION ( 'NONE',  ( 0.0000000000000000000, 1.000000000000000000, 0.0000000000000000000 ) ) ;
#217 = VERTEX_POINT ( 'NONE', #318 ) ;
#218 = CARTESIAN_POINT ( 'NONE',  ( 2.849999999999999200, 1.020224987289679800E-016, 0.0000000000000000000 ) ) ;
#219 = VERTEX_POINT ( 'NONE', #58 ) ;
#220 = CARTESIAN_POINT ( 'NONE',  ( 2.000000000000000000, 7.159473595015299000E-017, 0.0000000000000000000 ) ) ;
#221 = ADVANCED_FACE ( 'NONE', ( #177 ), #71, .T. ) ;
#222 = SURFACE_STYLE_USAGE ( .BOTH. , #192 ) ;
#223 = FACE_OUTER_BOUND ( 'NONE', #170, .T. ) ;
#224 = AXIS2_PLACEMENT_3D ( 'NONE', #6, #91, #35 ) ;
#225 = DIRECTION ( 'NONE',  ( 1.000000000000000000, 3.579736797507650100E-017, -0.0000000000000000000 ) ) ;
#226 = EDGE_LOOP ( 'NONE', ( #287, #87, #239 ) ) ;
#227 = DIRECTION ( 'NONE',  ( -5.421010862427520900E-017, 1.000000000000000000, 0.0000000000000000000 ) ) ;
#228 = ORIENTED_EDGE ( 'NONE', *, *, #306, .F. ) ;
#229 = LINE ( 'NONE', #20, #23 ) ;
#230 = ORIENTED_EDGE ( 'NONE', *, *, #33, .T. ) ;
#231 = ORIENTED_EDGE ( 'NONE', *, *, #174, .F. ) ;
#232 = ORIENTED_EDGE ( 'NONE', *, *, #66, .F. ) ;
#233 = LINE ( 'NONE', #83, #8 ) ;
#234 = EDGE_CURVE ( 'NONE', #219, #299, #78, .T. ) ;
#235 = CARTESIAN_POINT ( 'NONE',  ( 2.000000000000000000, 7.159473595015299000E-017, 0.0000000000000000000 ) ) ;
#236 = FACE_BOUND ( 'NONE', #353, .T. ) ;
#237 = AXIS2_PLACEMENT_3D ( 'NONE', #218, #41, #269 ) ;
#238 = AXIS2_PLACEMENT_3D ( 'NONE', #81, #141, #111 ) ;
#239 = ORIENTED_EDGE ( 'NONE', *, *, #204, .T. ) ;
#240 = ORIENTED_EDGE ( 'NONE', *, *, #142, .F. ) ;
#241 = CARTESIAN_POINT ( 'NONE',  ( 3.250000000000000000, -0.6250000000000003300, 7.654042494670964000E-017 ) ) ;
#242 = FACE_OUTER_BOUND ( 'NONE', #278, .T. ) ;
#243 = ORIENTED_EDGE ( 'NONE', *, *, #214, .T. ) ;
#244 = CARTESIAN_POINT ( 'NONE',  ( 0.2999999999999999300, -0.6250000000000004400, 7.654042494670965200E-017 ) ) ;
#245 = CARTESIAN_POINT ( 'NONE',  ( 2.849999999999999200, -1.004989885781022800E-016, 0.0000000000000000000 ) ) ;
#246 =( NAMED_UNIT ( * ) PLANE_ANGLE_UNIT ( ) SI_UNIT ( $, .RADIAN. ) );
#247 = DIRECTION ( 'NONE',  ( -5.421010862427520900E-017, 1.000000000000000000, 0.0000000000000000000 ) ) ;
#248 = EDGE_CURVE ( 'NONE', #219, #151, #327, .T. ) ;
#249 = DIRECTION ( 'NONE',  ( -3.579736797507650100E-017, 1.000000000000000000, 0.0000000000000000000 ) ) ;
#250 = PLANE ( 'NONE',  #307 ) ;
#251 = VERTEX_POINT ( 'NONE', #312 ) ;
#252 = PLANE ( 'NONE',  #238 ) ;
#253 = ORIENTED_EDGE ( 'NONE', *, *, #66, .T. ) ;
#254 = LINE ( 'NONE', #330, #211 ) ;
#255 = ADVANCED_FACE ( 'NONE', ( #309, #195 ), #252, .F. ) ;
#256 = FACE_OUTER_BOUND ( 'NONE', #43, .T. ) ;
#257 = DIRECTION ( 'NONE',  ( 0.0000000000000000000, -1.000000000000000000, 0.0000000000000000000 ) ) ;
#258 = AXIS2_PLACEMENT_3D ( 'NONE', #283, #375, #206 ) ;
#259 = AXIS2_PLACEMENT_3D ( 'NONE', #168, #370, #227 ) ;
#260 = ORIENTED_EDGE ( 'NONE', *, *, #100, .F. ) ;
#261 = ORIENTED_EDGE ( 'NONE', *, *, #7, .F. ) ;
#262 = DIRECTION ( 'NONE',  ( -1.000000000000000000, -3.579736797507658100E-017, 0.0000000000000000000 ) ) ;
#263 = FACE_OUTER_BOUND ( 'NONE', #79, .T. ) ;
#264 = EDGE_CURVE ( 'NONE', #288, #11, #332, .T. ) ;
#265 = DIRECTION ( 'NONE',  ( 0.0000000000000000000, -1.000000000000000000, 0.0000000000000000000 ) ) ;
#266 = VERTEX_POINT ( 'NONE', #110 ) ;
#267 = CIRCLE ( 'NONE', #48, 0.6250000000000004400 ) ;
#268 = CARTESIAN_POINT ( 'NONE',  ( 3.250000000000000000, 1.163414459189986200E-016, 0.0000000000000000000 ) ) ;
#269 = DIRECTION ( 'NONE',  ( 0.0000000000000000000, 1.000000000000000000, 0.0000000000000000000 ) ) ;
#270 = EDGE_CURVE ( 'NONE', #346, #347, #229, .T. ) ;
#271 = ORIENTED_EDGE ( 'NONE', *, *, #142, .T. ) ;
#272 =( NAMED_UNIT ( * ) PLANE_ANGLE_UNIT ( ) SI_UNIT ( $, .RADIAN. ) );
#273 = CARTESIAN_POINT ( 'NONE',  ( 0.0000000000000000000, -2.407412430484044800E-032, 0.0000000000000000000 ) ) ;
#274 = APPLICATION_PROTOCOL_DEFINITION ( 'draft international standard', 'automotive_design', 1998, #303 ) ;
#275 = MECHANICAL_DESIGN_GEOMETRIC_PRESENTATION_REPRESENTATION (  '', ( #329 ), #19 ) ;
#276 = DIRECTION ( 'NONE',  ( 0.0000000000000000000, 1.000000000000000000, 0.0000000000000000000 ) ) ;
#277 = CIRCLE ( 'NONE', #86, 0.4000000000000002400 ) ;
#278 = EDGE_LOOP ( 'NONE', ( #139, #297, #68, #178 ) ) ;
#279 = DIRECTION ( 'NONE',  ( 1.000000000000000000, 3.579736797507650100E-017, -0.0000000000000000000 ) ) ;
#280 = PRESENTATION_STYLE_ASSIGNMENT (( #222 ) ) ;
#281 =( NAMED_UNIT ( * ) PLANE_ANGLE_UNIT ( ) SI_UNIT ( $, .RADIAN. ) );
#282 = ADVANCED_FACE ( 'NONE', ( #152 ), #250, .F. ) ;
#283 = CARTESIAN_POINT ( 'NONE',  ( 3.250000000000000000, 1.163414459189986200E-016, 0.0000000000000000000 ) ) ;
#284 = EDGE_CURVE ( 'NONE', #184, #346, #290, .T. ) ;
#285 = AXIS2_PLACEMENT_3D ( 'NONE', #103, #50, #42 ) ;
#286 = CARTESIAN_POINT ( 'NONE',  ( 2.000000000000000000, -0.4249999999999995400, 0.0000000000000000000 ) ) ;
#287 = ORIENTED_EDGE ( 'NONE', *, *, #123, .F. ) ;
#288 = VERTEX_POINT ( 'NONE', #163 ) ;
#289 = EDGE_CURVE ( 'NONE', #184, #266, #55, .T. ) ;
#290 = CIRCLE ( 'NONE', #49, 0.4000000000000003000 ) ;
#291 = CARTESIAN_POINT ( 'NONE',  ( 0.2999999999999999300, 1.073921039252292900E-017, 0.0000000000000000000 ) ) ;
#292 = DIRECTION ( 'NONE',  ( 0.0000000000000000000, -1.000000000000000000, 0.0000000000000000000 ) ) ;
#293 = DIRECTION ( 'NONE',  ( 1.000000000000000000, 3.579736797507650100E-017, -0.0000000000000000000 ) ) ;
#294 = LINE ( 'NONE', #241, #171 ) ;
#295 = AXIS2_PLACEMENT_3D ( 'NONE', #115, #175, #351 ) ;
#296 = ORIENTED_EDGE ( 'NONE', *, *, #140, .F. ) ;
#297 = ORIENTED_EDGE ( 'NONE', *, *, #194, .T. ) ;
#298 = CARTESIAN_POINT ( 'NONE',  ( 2.000000000000000000, -0.4000000000000003000, 4.898587196589418000E-017 ) ) ;
#299 = VERTEX_POINT ( 'NONE', #244 ) ;
#300 = CARTESIAN_POINT ( 'NONE',  ( 2.000000000000000000, 7.159473595015299000E-017, 0.0000000000000000000 ) ) ;
#301 = CYLINDRICAL_SURFACE ( 'NONE', #258, 1.000000000000000000 ) ;
#302 = DIRECTION ( 'NONE',  ( 0.0000000000000000000, -1.000000000000000000, 0.0000000000000000000 ) ) ;
#303 = APPLICATION_CONTEXT ( 'automotive_design' ) ;
#304 = CARTESIAN_POINT ( 'NONE',  ( 0.2999999999999999300, 1.073921039252292900E-017, 0.0000000000000000000 ) ) ;
#305 = CARTESIAN_POINT ( 'NONE',  ( 3.250000000000000000, 1.163414459189986200E-016, 0.0000000000000000000 ) ) ;
#306 = EDGE_CURVE ( 'NONE', #217, #251, #117, .T. ) ;
#307 = AXIS2_PLACEMENT_3D ( 'NONE', #136, #338, #308 ) ;
#308 = DIRECTION ( 'NONE',  ( -3.579736797507650100E-017, 1.000000000000000000, 0.0000000000000000000 ) ) ;
#309 = FACE_OUTER_BOUND ( 'NONE', #333, .T. ) ;
#310 = DIRECTION ( 'NONE',  ( -3.579736797507650100E-017, 1.000000000000000000, 0.0000000000000000000 ) ) ;
#311 = UNCERTAINTY_MEASURE_WITH_UNIT (LENGTH_MEASURE( 1.000000000000000100E-005 ), #75, 'distance_accuracy_value', 'NONE');
#312 = CARTESIAN_POINT ( 'NONE',  ( 3.579736797507650100E-017, -1.000000000000000000, 1.224646799147353200E-016 ) ) ;
#313 = ORIENTED_EDGE ( 'NONE', *, *, #248, .F. ) ;
#314 = CYLINDRICAL_SURFACE ( 'NONE', #210, 0.6250000000000004400 ) ;
#315 = CARTESIAN_POINT ( 'NONE',  ( 2.000000000000000000, -0.4249999999999995400, 0.0000000000000000000 ) ) ;
#316 = EDGE_CURVE ( 'NONE', #101, #187, #34, .T. ) ;
#317 = SURFACE_SIDE_STYLE ('',( #339 ) ) ;
#318 = CARTESIAN_POINT ( 'NONE',  ( -3.579736797507650100E-017, 1.000000000000000000, 0.0000000000000000000 ) ) ;
#319 = CONICAL_SURFACE ( 'NONE', #147, 0.4249999999999996000, 0.7853981633974479500 ) ;
#320 = AXIS2_PLACEMENT_3D ( 'NONE', #209, #57, #28 ) ;
#321 = EDGE_LOOP ( 'NONE', ( #261, #349 ) ) ;
#322 = ORIENTED_EDGE ( 'NONE', *, *, #316, .T. ) ;
#323 = VECTOR ( 'NONE', #51, 1000.000000000000000 ) ;
#324 = CLOSED_SHELL ( 'NONE', ( #173, #107, #207, #138, #167, #282, #203, #183, #373, #255, #221, #134, #105 ) ) ;
#325 = ORIENTED_EDGE ( 'NONE', *, *, #194, .F. ) ;
#326 = SHAPE_DEFINITION_REPRESENTATION ( #59, #150 ) ;
#327 = LINE ( 'NONE', #200, #98 ) ;
#328 = DIRECTION ( 'NONE',  ( 0.0000000000000000000, -1.000000000000000000, 0.0000000000000000000 ) ) ;
#329 = STYLED_ITEM ( 'NONE', ( #208 ), #189 ) ;
#330 = CARTESIAN_POINT ( 'NONE',  ( 3.250000000000000000, 1.000000000000000200, 0.0000000000000000000 ) ) ;
#331 = ORIENTED_EDGE ( 'NONE', *, *, #234, .T. ) ;
#332 = CIRCLE ( 'NONE', #259, 1.000000000000000200 ) ;
#333 = EDGE_LOOP ( 'NONE', ( #53, #322 ) ) ;
#334 = CARTESIAN_POINT ( 'NONE',  ( 2.000000000000000000, 0.4000000000000003600, 0.0000000000000000000 ) ) ;
#335 = DIRECTION ( 'NONE',  ( 0.0000000000000000000, -1.000000000000000000, 0.0000000000000000000 ) ) ;
#336 = APPLICATION_CONTEXT ( 'automotive_design' ) ;
#337 = CARTESIAN_POINT ( 'NONE',  ( 2.849999999999999200, -1.004989885781022800E-016, 0.0000000000000000000 ) ) ;
#338 = DIRECTION ( 'NONE',  ( 1.000000000000000000, 3.579736797507650100E-017, -0.0000000000000000000 ) ) ;
#339 = SURFACE_STYLE_FILL_AREA ( #376 ) ;
#340 = DIRECTION ( 'NONE',  ( -1.000000000000000000, -3.579736797507650100E-017, 0.0000000000000000000 ) ) ;
#341 = DIRECTION ( 'NONE',  ( 1.000000000000000000, 3.579736797507650100E-017, -0.0000000000000000000 ) ) ;
#342 = FILL_AREA_STYLE_COLOUR ( '', #21 ) ;
#343 = AXIS2_PLACEMENT_3D ( 'NONE', #93, #262, #292 ) ;
#344 = DIRECTION ( 'NONE',  ( 1.000000000000000000, 3.579736797507650100E-017, -0.0000000000000000000 ) ) ;
#345 = ORIENTED_EDGE ( 'NONE', *, *, #352, .T. ) ;
#346 = VERTEX_POINT ( 'NONE', #334 ) ;
#347 = VERTEX_POINT ( 'NONE', #197 ) ;
#348 = DIRECTION ( 'NONE',  ( -0.7071067811865477900, 0.7071067811865473500, 8.659560562354930400E-017 ) ) ;
#349 = ORIENTED_EDGE ( 'NONE', *, *, #284, .F. ) ;
#350 = LINE ( 'NONE', #315, #185 ) ;
#351 = DIRECTION ( 'NONE',  ( 0.0000000000000000000, 1.000000000000000000, 0.0000000000000000000 ) ) ;
#352 = EDGE_CURVE ( 'NONE', #251, #217, #63, .T. ) ;
#353 = EDGE_LOOP ( 'NONE', ( #1, #149 ) ) ;
#354 = LINE ( 'NONE', #126, #122 ) ;
#355 = DIRECTION ( 'NONE',  ( -1.000000000000000000, -3.579736797507658100E-017, 0.0000000000000000000 ) ) ;
#356 = DIRECTION ( 'NONE',  ( 1.000000000000000000, 3.579736797507650100E-017, -0.0000000000000000000 ) ) ;
#357 = AXIS2_PLACEMENT_3D ( 'NONE', #125, #355, #328 ) ;
#358 = ORIENTED_EDGE ( 'NONE', *, *, #264, .F. ) ;
#359 = CARTESIAN_POINT ( 'NONE',  ( 0.2999999999999999300, 1.073921039252292900E-017, 0.0000000000000000000 ) ) ;
#360 = SURFACE_STYLE_FILL_AREA ( #16 ) ;
#361 = EDGE_LOOP ( 'NONE', ( #159, #253, #296, #120 ) ) ;
#362 = DIRECTION ( 'NONE',  ( 0.0000000000000000000, 0.0000000000000000000, -1.000000000000000000 ) ) ;
#363 = CYLINDRICAL_SURFACE ( 'NONE', #295, 0.4000000000000003000 ) ;
#364 = CARTESIAN_POINT ( 'NONE',  ( 3.250000000000000000, -0.4000000000000001900, 4.898587196589416800E-017 ) ) ;
#365 = DIRECTION ( 'NONE',  ( 4.383913210857740800E-033, -1.224646799147353200E-016, -1.000000000000000000 ) ) ;
#366 =( LENGTH_UNIT ( ) NAMED_UNIT ( * ) SI_UNIT ( .MILLI., .METRE. ) );
#367 = AXIS2_PLACEMENT_3D ( 'NONE', #304, #45, #247 ) ;
#368 = AXIS2_PLACEMENT_3D ( 'NONE', #300, #130, #137 ) ;
#369 = DIRECTION ( 'NONE',  ( 1.000000000000000000, 3.579736797507650100E-017, -0.0000000000000000000 ) ) ;
#370 = DIRECTION ( 'NONE',  ( 1.000000000000000000, 3.579736797507650100E-017, -0.0000000000000000000 ) ) ;
#371 = ORIENTED_EDGE ( 'NONE', *, *, #248, .T. ) ;
#372 = ORIENTED_EDGE ( 'NONE', *, *, #264, .T. ) ;
#373 = ADVANCED_FACE ( 'NONE', ( #256 ), #94, .T. ) ;
#374 = SPHERICAL_SURFACE ( 'NONE', #108, 0.4000000000000003000 ) ;
#375 = DIRECTION ( 'NONE',  ( 1.000000000000000000, 3.579736797507650100E-017, -0.0000000000000000000 ) ) ;
#376 = FILL_AREA_STYLE ('',( #145 ) ) ;
ENDSEC;
END-ISO-10303-21;
