ISO-10303-21;
HEADER;
FILE_DESCRIPTION (( 'STEP AP214' ),
    '1' );
FILE_NAME ('UEBK-13653_step.step',
    '2023-10-05T17:02:20',
    ( '' ),
    ( '' ),
    'SwSTEP 2.0',
    'SolidWorks 2022',
    '' );
FILE_SCHEMA (( 'AUTOMOTIVE_DESIGN' ));
ENDSEC;

DATA;
#1 = ADVANCED_FACE ( 'NONE', ( #184 ), #152, .T. ) ;
#2 = CARTESIAN_POINT ( 'NONE',  ( 0.000000000000000000, 0.000000000000000000, 0.000000000000000000 ) ) ;
#3 = AXIS2_PLACEMENT_3D ( 'NONE', #162, #286, #356 ) ;
#4 = ORIENTED_EDGE ( 'NONE', *, *, #179, .T. ) ;
#5 =( NAMED_UNIT ( * ) SI_UNIT ( $, .STERADIAN. ) SOLID_ANGLE_UNIT ( ) );
#6 = EDGE_LOOP ( 'NONE', ( #44, #217 ) ) ;
#7 = APPLICATION_CONTEXT ( 'automotive_design' ) ;
#8 = LINE ( 'NONE', #316, #257 ) ;
#9 = CARTESIAN_POINT ( 'NONE',  ( 0.000000000000000000, 0.000000000000000000, -0.2500000000000000000 ) ) ;
#10 = AXIS2_PLACEMENT_3D ( 'NONE', #41, #196, #323 ) ;
#11 = FACE_OUTER_BOUND ( 'NONE', #27, .T. ) ;
#12 = PRODUCT_DEFINITION_FORMATION_WITH_SPECIFIED_SOURCE ( 'ANY', '', #320, .NOT_KNOWN. ) ;
#13 = DIRECTION ( 'NONE',  ( 0.000000000000000000, 0.000000000000000000, 1.000000000000000000 ) ) ;
#14 = CARTESIAN_POINT ( 'NONE',  ( 0.2000000000000000111, 0.000000000000000000, -0.2500000000000000000 ) ) ;
#15 = DIRECTION ( 'NONE',  ( -1.000000000000000000, -1.224646799147351975E-16, 0.000000000000000000 ) ) ;
#16 = DIRECTION ( 'NONE',  ( 0.000000000000000000, 1.000000000000000000, 0.000000000000000000 ) ) ;
#17 = CARTESIAN_POINT ( 'NONE',  ( 0.000000000000000000, 0.000000000000000000, 0.000000000000000000 ) ) ;
#18 = DIRECTION ( 'NONE',  ( 0.000000000000000000, -1.000000000000000000, 0.000000000000000000 ) ) ;
#19 = EDGE_CURVE ( 'NONE', #328, #325, #96, .T. ) ;
#20 = CIRCLE ( 'NONE', #56, 0.4000000000000000222 ) ;
#21 = AXIS2_PLACEMENT_3D ( 'NONE', #313, #295, #15 ) ;
#22 = CARTESIAN_POINT ( 'NONE',  ( 0.000000000000000000, 0.000000000000000000, 0.000000000000000000 ) ) ;
#23 = ORIENTED_EDGE ( 'NONE', *, *, #285, .T. ) ;
#24 = COLOUR_RGB ( '',0.9686274509803921573, 0.8784313725490195957, 0.5999999999999999778 ) ;
#25 = DIRECTION ( 'NONE',  ( 0.000000000000000000, 0.000000000000000000, -1.000000000000000000 ) ) ;
#26 = DIRECTION ( 'NONE',  ( 0.000000000000000000, 0.000000000000000000, 1.000000000000000000 ) ) ;
#27 = EDGE_LOOP ( 'NONE', ( #142, #177 ) ) ;
#28 = ORIENTED_EDGE ( 'NONE', *, *, #126, .F. ) ;
#29 = AXIS2_PLACEMENT_3D ( 'NONE', #233, #352, #133 ) ;
#30 = EDGE_LOOP ( 'NONE', ( #251, #156, #65, #175, #305 ) ) ;
#31 = DIRECTION ( 'NONE',  ( 1.000000000000000000, 0.000000000000000000, 0.000000000000000000 ) ) ;
#32 = EDGE_CURVE ( 'NONE', #66, #83, #367, .T. ) ;
#33 = ORIENTED_EDGE ( 'NONE', *, *, #315, .F. ) ;
#34 = CIRCLE ( 'NONE', #131, 0.2000000000000000111 ) ;
#35 = AXIS2_PLACEMENT_3D ( 'NONE', #234, #267, #353 ) ;
#36 = CIRCLE ( 'NONE', #378, 0.4000000000000000222 ) ;
#37 = DIRECTION ( 'NONE',  ( 0.000000000000000000, 0.000000000000000000, 1.000000000000000000 ) ) ;
#38 = CARTESIAN_POINT ( 'NONE',  ( 0.000000000000000000, 0.000000000000000000, -0.9200000000000000400 ) ) ;
#39 = DIRECTION ( 'NONE',  ( 0.000000000000000000, 0.000000000000000000, 1.000000000000000000 ) ) ;
#40 = FACE_OUTER_BOUND ( 'NONE', #311, .T. ) ;
#41 = CARTESIAN_POINT ( 'NONE',  ( -0.2200000000000000011, 0.000000000000000000, -0.3300000000000000155 ) ) ;
#42 = CARTESIAN_POINT ( 'NONE',  ( 0.000000000000000000, 0.000000000000000000, -0.3300000000000000155 ) ) ;
#43 = CIRCLE ( 'NONE', #35, 0.4000000000000000222 ) ;
#44 = ORIENTED_EDGE ( 'NONE', *, *, #365, .F. ) ;
#45 = VECTOR ( 'NONE', #374, 1000.000000000000000 ) ;
#46 = DIRECTION ( 'NONE',  ( 1.000000000000000000, 0.000000000000000000, 0.000000000000000000 ) ) ;
#47 = CARTESIAN_POINT ( 'NONE',  ( 0.000000000000000000, 0.000000000000000000, -0.2500000000000000000 ) ) ;
#48 = SURFACE_STYLE_USAGE ( .BOTH. , #351 ) ;
#49 = PLANE ( 'NONE',  #288 ) ;
#50 = EDGE_CURVE ( 'NONE', #66, #240, #284, .T. ) ;
#51 = AXIS2_PLACEMENT_3D ( 'NONE', #167, #264, #293 ) ;
#52 = CYLINDRICAL_SURFACE ( 'NONE', #280, 0.2999999999999999889 ) ;
#53 = VERTEX_POINT ( 'NONE', #92 ) ;
#54 = CLOSED_SHELL ( 'NONE', ( #250, #82, #274, #1, #100, #59, #306, #114, #211, #157, #90, #341, #209 ) ) ;
#55 = DIRECTION ( 'NONE',  ( -1.224646799147351975E-16, -1.000000000000000000, 0.000000000000000000 ) ) ;
#56 = AXIS2_PLACEMENT_3D ( 'NONE', #187, #276, #60 ) ;
#57 = ORIENTED_EDGE ( 'NONE', *, *, #338, .F. ) ;
#58 = EDGE_LOOP ( 'NONE', ( #245, #238 ) ) ;
#59 = ADVANCED_FACE ( 'NONE', ( #93 ), #186, .T. ) ;
#60 = DIRECTION ( 'NONE',  ( 1.000000000000000000, 0.000000000000000000, 0.000000000000000000 ) ) ;
#61 = CIRCLE ( 'NONE', #236, 0.2200000000000000011 ) ;
#62 = CIRCLE ( 'NONE', #383, 0.2000000000000000111 ) ;
#63 = VERTEX_POINT ( 'NONE', #215 ) ;
#64 = SURFACE_SIDE_STYLE ('',( #334 ) ) ;
#65 = ORIENTED_EDGE ( 'NONE', *, *, #202, .F. ) ;
#66 = VERTEX_POINT ( 'NONE', #259 ) ;
#67 = CARTESIAN_POINT ( 'NONE',  ( 0.000000000000000000, 0.000000000000000000, 0.000000000000000000 ) ) ;
#68 = DIRECTION ( 'NONE',  ( 0.000000000000000000, 0.000000000000000000, 1.000000000000000000 ) ) ;
#69 = DIRECTION ( 'NONE',  ( 1.000000000000000000, 0.000000000000000000, 0.000000000000000000 ) ) ;
#70 = DIRECTION ( 'NONE',  ( 0.000000000000000000, 1.000000000000000000, 0.000000000000000000 ) ) ;
#71 = EDGE_CURVE ( 'NONE', #87, #190, #379, .T. ) ;
#72 = DIRECTION ( 'NONE',  ( 1.000000000000000000, 0.000000000000000000, 0.000000000000000000 ) ) ;
#73 = CARTESIAN_POINT ( 'NONE',  ( 0.000000000000000000, 0.000000000000000000, -0.07639320225002110831 ) ) ;
#74 = TOROIDAL_SURFACE ( 'NONE', #191, 0.2200000000000000011, 0.08000000000000000167 ) ;
#75 = FACE_OUTER_BOUND ( 'NONE', #307, .T. ) ;
#76 =( LENGTH_UNIT ( ) NAMED_UNIT ( * ) SI_UNIT ( .MILLI., .METRE. ) );
#77 = CARTESIAN_POINT ( 'NONE',  ( 0.2000000000000000111, 0.000000000000000000, 0.000000000000000000 ) ) ;
#78 = FACE_OUTER_BOUND ( 'NONE', #112, .T. ) ;
#79 = CIRCLE ( 'NONE', #183, 0.2000000000000000111 ) ;
#80 = VERTEX_POINT ( 'NONE', #109 ) ;
#81 = ORIENTED_EDGE ( 'NONE', *, *, #129, .F. ) ;
#82 = ADVANCED_FACE ( 'NONE', ( #75 ), #200, .T. ) ;
#83 = VERTEX_POINT ( 'NONE', #377 ) ;
#84 = ORIENTED_EDGE ( 'NONE', *, *, #362, .T. ) ;
#85 = DIRECTION ( 'NONE',  ( 1.000000000000000000, 0.000000000000000000, 0.000000000000000000 ) ) ;
#86 = AXIS2_PLACEMENT_3D ( 'NONE', #67, #103, #321 ) ;
#87 = VERTEX_POINT ( 'NONE', #14 ) ;
#88 = DIRECTION ( 'NONE',  ( 1.000000000000000000, 0.000000000000000000, 0.000000000000000000 ) ) ;
#89 = PRESENTATION_LAYER_ASSIGNMENT (  '', '', ( #369 ) ) ;
#90 = ADVANCED_FACE ( 'NONE', ( #198 ), #371, .T. ) ;
#91 = CARTESIAN_POINT ( 'NONE',  ( 0.000000000000000000, 0.000000000000000000, -1.000000000000000000 ) ) ;
#92 = CARTESIAN_POINT ( 'NONE',  ( 0.2200000000000000011, 3.184081677783119916E-17, -0.2500000000000000000 ) ) ;
#93 = FACE_OUTER_BOUND ( 'NONE', #261, .T. ) ;
#94 = CIRCLE ( 'NONE', #139, 0.2999999999999999889 ) ;
#95 = VERTEX_POINT ( 'NONE', #108 ) ;
#96 = LINE ( 'NONE', #339, #149 ) ;
#97 = CARTESIAN_POINT ( 'NONE',  ( 0.000000000000000000, 0.000000000000000000, -0.07639320225002110831 ) ) ;
#98 = AXIS2_PLACEMENT_3D ( 'NONE', #171, #135, #16 ) ;
#99 = CARTESIAN_POINT ( 'NONE',  ( 0.4000000000000000222, 0.000000000000000000, -0.9200000000000000400 ) ) ;
#100 = ADVANCED_FACE ( 'NONE', ( #317 ), #262, .T. ) ;
#101 = DIRECTION ( 'NONE',  ( 1.000000000000000000, 0.000000000000000000, 0.000000000000000000 ) ) ;
#102 = DIRECTION ( 'NONE',  ( 1.000000000000000000, 0.000000000000000000, 0.000000000000000000 ) ) ;
#103 = DIRECTION ( 'NONE',  ( 0.000000000000000000, 0.000000000000000000, 1.000000000000000000 ) ) ;
#104 = FILL_AREA_STYLE_COLOUR ( '', #24 ) ;
#105 = EDGE_CURVE ( 'NONE', #87, #328, #34, .T. ) ;
#106 =( GEOMETRIC_REPRESENTATION_CONTEXT ( 3 ) GLOBAL_UNCERTAINTY_ASSIGNED_CONTEXT ( ( #146 ) ) GLOBAL_UNIT_ASSIGNED_CONTEXT ( ( #76, #370, #252 ) ) REPRESENTATION_CONTEXT ( 'NONE', 'WORKASPACE' ) );
#107 = ORIENTED_EDGE ( 'NONE', *, *, #285, .F. ) ;
#108 = CARTESIAN_POINT ( 'NONE',  ( -0.2200000000000000011, 0.000000000000000000, -0.2500000000000000000 ) ) ;
#109 = CARTESIAN_POINT ( 'NONE',  ( -0.4000000000000000222, 4.898587196589409994E-17, -1.000000000000000000 ) ) ;
#110 = EDGE_LOOP ( 'NONE', ( #357, #220 ) ) ;
#111 = AXIS2_PLACEMENT_3D ( 'NONE', #147, #25, #247 ) ;
#112 = EDGE_LOOP ( 'NONE', ( #116, #361, #182, #384 ) ) ;
#113 = CARTESIAN_POINT ( 'NONE',  ( 0.000000000000000000, -8.572527594031469492E-17, -0.2999999999999999889 ) ) ;
#114 = ADVANCED_FACE ( 'NONE', ( #226, #348 ), #169, .F. ) ;
#115 = ORIENTED_EDGE ( 'NONE', *, *, #202, .T. ) ;
#116 = ORIENTED_EDGE ( 'NONE', *, *, #50, .F. ) ;
#117 = DIRECTION ( 'NONE',  ( 1.000000000000000000, 0.000000000000000000, 0.000000000000000000 ) ) ;
#118 = DIRECTION ( 'NONE',  ( 0.000000000000000000, 0.000000000000000000, 1.000000000000000000 ) ) ;
#119 = APPLICATION_PROTOCOL_DEFINITION ( 'draft international standard', 'automotive_design', 1998, #218 ) ;
#120 = ORIENTED_EDGE ( 'NONE', *, *, #185, .T. ) ;
#121 = STYLED_ITEM ( 'NONE', ( #366 ), #241 ) ;
#122 = PRODUCT_CONTEXT ( 'NONE', #218, 'mechanical' ) ;
#123 =( NAMED_UNIT ( * ) PLANE_ANGLE_UNIT ( ) SI_UNIT ( $, .RADIAN. ) );
#124 = VERTEX_POINT ( 'NONE', #130 ) ;
#125 = CARTESIAN_POINT ( 'NONE',  ( 0.4000000000000000222, 0.000000000000000000, -1.000000000000000000 ) ) ;
#126 = EDGE_CURVE ( 'NONE', #325, #278, #79, .T. ) ;
#127 = CARTESIAN_POINT ( 'NONE',  ( 0.000000000000000000, 0.000000000000000000, -0.9200000000000000400 ) ) ;
#128 = DIRECTION ( 'NONE',  ( 0.000000000000000000, 0.000000000000000000, -1.000000000000000000 ) ) ;
#129 = EDGE_CURVE ( 'NONE', #95, #240, #237, .T. ) ;
#130 = CARTESIAN_POINT ( 'NONE',  ( 0.2999999999999999889, 0.000000000000000000, -0.3300000000000000155 ) ) ;
#131 = AXIS2_PLACEMENT_3D ( 'NONE', #47, #137, #102 ) ;
#132 = CYLINDRICAL_SURFACE ( 'NONE', #227, 0.2000000000000000111 ) ;
#133 = DIRECTION ( 'NONE',  ( 0.000000000000000000, -1.000000000000000000, 0.000000000000000000 ) ) ;
#134 = LINE ( 'NONE', #219, #165 ) ;
#135 = DIRECTION ( 'NONE',  ( 1.000000000000000000, -0.000000000000000000, 0.000000000000000000 ) ) ;
#136 = CARTESIAN_POINT ( 'NONE',  ( 0.2999999999999999889, 0.000000000000000000, 0.000000000000000000 ) ) ;
#137 = DIRECTION ( 'NONE',  ( 0.000000000000000000, 0.000000000000000000, 1.000000000000000000 ) ) ;
#138 = AXIS2_PLACEMENT_3D ( 'NONE', #255, #346, #290 ) ;
#139 = AXIS2_PLACEMENT_3D ( 'NONE', #113, #302, #55 ) ;
#140 = DIRECTION ( 'NONE',  ( -1.000000000000000000, 0.000000000000000000, 0.000000000000000000 ) ) ;
#141 = EDGE_CURVE ( 'NONE', #53, #95, #61, .T. ) ;
#142 = ORIENTED_EDGE ( 'NONE', *, *, #174, .T. ) ;
#143 = CIRCLE ( 'NONE', #214, 0.2000000000000000111 ) ;
#144 = EDGE_LOOP ( 'NONE', ( #115, #319, #120 ) ) ;
#145 = ORIENTED_EDGE ( 'NONE', *, *, #224, .T. ) ;
#146 = UNCERTAINTY_MEASURE_WITH_UNIT (LENGTH_MEASURE( 1.000000000000000082E-05 ), #76, 'distance_accuracy_value', 'NONE');
#147 = CARTESIAN_POINT ( 'NONE',  ( 0.000000000000000000, 0.000000000000000000, -0.3300000000000000155 ) ) ;
#148 = ORIENTED_EDGE ( 'NONE', *, *, #172, .F. ) ;
#149 = VECTOR ( 'NONE', #37, 1000.000000000000000 ) ;
#150 = ORIENTED_EDGE ( 'NONE', *, *, #258, .T. ) ;
#151 =( GEOMETRIC_REPRESENTATION_CONTEXT ( 3 ) GLOBAL_UNCERTAINTY_ASSIGNED_CONTEXT ( ( #242 ) ) GLOBAL_UNIT_ASSIGNED_CONTEXT ( ( #213, #153, #364 ) ) REPRESENTATION_CONTEXT ( 'NONE', 'WORKASPACE' ) );
#152 = CYLINDRICAL_SURFACE ( 'NONE', #173, 0.2000000000000000111 ) ;
#153 =( NAMED_UNIT ( * ) PLANE_ANGLE_UNIT ( ) SI_UNIT ( $, .RADIAN. ) );
#154 = ORIENTED_EDGE ( 'NONE', *, *, #365, .T. ) ;
#155 = AXIS2_PLACEMENT_3D ( 'NONE', #127, #118, #160 ) ;
#156 = ORIENTED_EDGE ( 'NONE', *, *, #19, .T. ) ;
#157 = ADVANCED_FACE ( 'NONE', ( #228, #11 ), #49, .F. ) ;
#158 = PRESENTATION_LAYER_ASSIGNMENT (  '', '', ( #121 ) ) ;
#159 = DIRECTION ( 'NONE',  ( 0.000000000000000000, 0.000000000000000000, 1.000000000000000000 ) ) ;
#160 = DIRECTION ( 'NONE',  ( 1.000000000000000000, 0.000000000000000000, 0.000000000000000000 ) ) ;
#161 = CARTESIAN_POINT ( 'NONE',  ( -0.2000000000000000111, 2.449293598294704997E-17, -0.07639320225002110831 ) ) ;
#162 = CARTESIAN_POINT ( 'NONE',  ( 0.000000000000000000, 0.000000000000000000, -0.2500000000000000000 ) ) ;
#163 = DIRECTION ( 'NONE',  ( 0.000000000000000000, 0.000000000000000000, 1.000000000000000000 ) ) ;
#164 = DIRECTION ( 'NONE',  ( 0.000000000000000000, 0.000000000000000000, 1.000000000000000000 ) ) ;
#165 = VECTOR ( 'NONE', #345, 1000.000000000000000 ) ;
#166 = VERTEX_POINT ( 'NONE', #368 ) ;
#167 = CARTESIAN_POINT ( 'NONE',  ( 0.000000000000000000, 0.000000000000000000, 0.000000000000000000 ) ) ;
#168 = DIRECTION ( 'NONE',  ( 0.000000000000000000, 0.000000000000000000, 1.000000000000000000 ) ) ;
#169 = PLANE ( 'NONE',  #29 ) ;
#170 = CYLINDRICAL_SURFACE ( 'NONE', #86, 0.2999999999999999889 ) ;
#171 = CARTESIAN_POINT ( 'NONE',  ( 0.000000000000000000, -8.572527594031469492E-17, -0.2999999999999999889 ) ) ;
#172 = EDGE_CURVE ( 'NONE', #166, #281, #43, .T. ) ;
#173 = AXIS2_PLACEMENT_3D ( 'NONE', #2, #68, #249 ) ;
#174 = EDGE_CURVE ( 'NONE', #281, #166, #376, .T. ) ;
#175 = ORIENTED_EDGE ( 'NONE', *, *, #258, .F. ) ;
#176 = DIRECTION ( 'NONE',  ( 0.000000000000000000, 0.000000000000000000, -1.000000000000000000 ) ) ;
#177 = ORIENTED_EDGE ( 'NONE', *, *, #172, .T. ) ;
#178 = CIRCLE ( 'NONE', #265, 0.2000000000000000111 ) ;
#179 = EDGE_CURVE ( 'NONE', #328, #87, #301, .T. ) ;
#180 = ORIENTED_EDGE ( 'NONE', *, *, #185, .F. ) ;
#181 = DIRECTION ( 'NONE',  ( 0.000000000000000000, 0.000000000000000000, 1.000000000000000000 ) ) ;
#182 = ORIENTED_EDGE ( 'NONE', *, *, #315, .T. ) ;
#183 = AXIS2_PLACEMENT_3D ( 'NONE', #326, #164, #72 ) ;
#184 = FACE_OUTER_BOUND ( 'NONE', #30, .T. ) ;
#185 = EDGE_CURVE ( 'NONE', #278, #63, #94, .T. ) ;
#186 = SPHERICAL_SURFACE ( 'NONE', #375, 0.2999999999999999889 ) ;
#187 = CARTESIAN_POINT ( 'NONE',  ( 0.000000000000000000, 0.000000000000000000, -1.000000000000000000 ) ) ;
#188 = ORIENTED_EDGE ( 'NONE', *, *, #129, .T. ) ;
#189 = FILL_AREA_STYLE_COLOUR ( '', #322 ) ;
#190 = VERTEX_POINT ( 'NONE', #201 ) ;
#191 = AXIS2_PLACEMENT_3D ( 'NONE', #42, #230, #291 ) ;
#192 = FACE_OUTER_BOUND ( 'NONE', #243, .T. ) ;
#193 = CARTESIAN_POINT ( 'NONE',  ( 0.000000000000000000, 0.000000000000000000, -0.9200000000000000400 ) ) ;
#194 = LINE ( 'NONE', #136, #45 ) ;
#195 = DIRECTION ( 'NONE',  ( 0.000000000000000000, 0.000000000000000000, 1.000000000000000000 ) ) ;
#196 = DIRECTION ( 'NONE',  ( 0.000000000000000000, -1.000000000000000000, 0.000000000000000000 ) ) ;
#197 = CIRCLE ( 'NONE', #111, 0.2999999999999999889 ) ;
#198 = FACE_OUTER_BOUND ( 'NONE', #382, .T. ) ;
#199 = DIRECTION ( 'NONE',  ( 1.000000000000000000, 0.000000000000000000, 0.000000000000000000 ) ) ;
#200 = CYLINDRICAL_SURFACE ( 'NONE', #138, 0.4000000000000000222 ) ;
#201 = CARTESIAN_POINT ( 'NONE',  ( 0.2000000000000000111, 0.000000000000000000, -0.07639320225002110831 ) ) ;
#202 = EDGE_CURVE ( 'NONE', #63, #325, #143, .T. ) ;
#203 = ORIENTED_EDGE ( 'NONE', *, *, #277, .T. ) ;
#204 = ORIENTED_EDGE ( 'NONE', *, *, #71, .T. ) ;
#205 = EDGE_CURVE ( 'NONE', #240, #124, #197, .T. ) ;
#206 = ORIENTED_EDGE ( 'NONE', *, *, #224, .F. ) ;
#207 = CIRCLE ( 'NONE', #335, 0.2200000000000000011 ) ;
#208 = PRESENTATION_STYLE_ASSIGNMENT (( #360 ) ) ;
#209 = ADVANCED_FACE ( 'NONE', ( #304 ), #229, .T. ) ;
#210 = ORIENTED_EDGE ( 'NONE', *, *, #266, .F. ) ;
#211 = ADVANCED_FACE ( 'NONE', ( #78 ), #52, .T. ) ;
#212 = CARTESIAN_POINT ( 'NONE',  ( 0.000000000000000000, 0.000000000000000000, 0.000000000000000000 ) ) ;
#213 =( LENGTH_UNIT ( ) NAMED_UNIT ( * ) SI_UNIT ( .MILLI., .METRE. ) );
#214 = AXIS2_PLACEMENT_3D ( 'NONE', #269, #330, #85 ) ;
#215 = CARTESIAN_POINT ( 'NONE',  ( 0.000000000000000000, 0.2000000000000000111, -0.07639320225002110831 ) ) ;
#216 = ORIENTED_EDGE ( 'NONE', *, *, #19, .F. ) ;
#217 = ORIENTED_EDGE ( 'NONE', *, *, #362, .F. ) ;
#218 = APPLICATION_CONTEXT ( 'automotive_design' ) ;
#219 = CARTESIAN_POINT ( 'NONE',  ( -0.4000000000000000222, 4.898587196589409994E-17, 0.000000000000000000 ) ) ;
#220 = ORIENTED_EDGE ( 'NONE', *, *, #32, .F. ) ;
#221 = CARTESIAN_POINT ( 'NONE',  ( -0.2999999999999999889, 3.673940397442059498E-17, -0.3300000000000000155 ) ) ;
#222 = AXIS2_PLACEMENT_3D ( 'NONE', #349, #128, #324 ) ;
#223 = DIRECTION ( 'NONE',  ( 1.000000000000000000, 0.000000000000000000, 0.000000000000000000 ) ) ;
#224 = EDGE_CURVE ( 'NONE', #95, #53, #207, .T. ) ;
#225 = CARTESIAN_POINT ( 'NONE',  ( -2.449293598294704997E-17, -0.2000000000000000111, -0.07639320225002110831 ) ) ;
#226 = FACE_BOUND ( 'NONE', #58, .T. ) ;
#227 = AXIS2_PLACEMENT_3D ( 'NONE', #17, #168, #46 ) ;
#228 = FACE_BOUND ( 'NONE', #110, .T. ) ;
#229 = TOROIDAL_SURFACE ( 'NONE', #318, 0.2200000000000000011, 0.08000000000000000167 ) ;
#230 = DIRECTION ( 'NONE',  ( 0.000000000000000000, 0.000000000000000000, -1.000000000000000000 ) ) ;
#231 = AXIS2_PLACEMENT_3D ( 'NONE', #212, #181, #88 ) ;
#232 = EDGE_LOOP ( 'NONE', ( #309, #206, #188, #337 ) ) ;
#233 = CARTESIAN_POINT ( 'NONE',  ( 0.000000000000000000, 0.2000000000000000111, -0.2500000000000000000 ) ) ;
#234 = CARTESIAN_POINT ( 'NONE',  ( 0.000000000000000000, 0.000000000000000000, -0.9200000000000000400 ) ) ;
#235 = ORIENTED_EDGE ( 'NONE', *, *, #338, .T. ) ;
#236 = AXIS2_PLACEMENT_3D ( 'NONE', #9, #373, #140 ) ;
#237 = CIRCLE ( 'NONE', #10, 0.07999999999999998779 ) ;
#238 = ORIENTED_EDGE ( 'NONE', *, *, #179, .F. ) ;
#239 = AXIS2_PLACEMENT_3D ( 'NONE', #388, #336, #117 ) ;
#240 = VERTEX_POINT ( 'NONE', #221 ) ;
#241 = MANIFOLD_SOLID_BREP ( 'NONE', #54 ) ;
#242 = UNCERTAINTY_MEASURE_WITH_UNIT (LENGTH_MEASURE( 1.000000000000000082E-05 ), #213, 'distance_accuracy_value', 'NONE');
#243 = EDGE_LOOP ( 'NONE', ( #248, #342, #354, #81 ) ) ;
#244 = CIRCLE ( 'NONE', #21, 0.08000000000000001554 ) ;
#245 = ORIENTED_EDGE ( 'NONE', *, *, #105, .F. ) ;
#246 = DIRECTION ( 'NONE',  ( 1.000000000000000000, 0.000000000000000000, 0.000000000000000000 ) ) ;
#247 = DIRECTION ( 'NONE',  ( -1.000000000000000000, 0.000000000000000000, 0.000000000000000000 ) ) ;
#248 = ORIENTED_EDGE ( 'NONE', *, *, #141, .F. ) ;
#249 = DIRECTION ( 'NONE',  ( 1.000000000000000000, 0.000000000000000000, 0.000000000000000000 ) ) ;
#250 = ADVANCED_FACE ( 'NONE', ( #192 ), #74, .T. ) ;
#251 = ORIENTED_EDGE ( 'NONE', *, *, #105, .T. ) ;
#252 =( NAMED_UNIT ( * ) SI_UNIT ( $, .STERADIAN. ) SOLID_ANGLE_UNIT ( ) );
#253 = SURFACE_STYLE_FILL_AREA ( #263 ) ;
#254 = VECTOR ( 'NONE', #363, 1000.000000000000000 ) ;
#255 = CARTESIAN_POINT ( 'NONE',  ( 0.000000000000000000, 0.000000000000000000, 0.000000000000000000 ) ) ;
#256 = CARTESIAN_POINT ( 'NONE',  ( -0.2000000000000000111, 2.449293598294704997E-17, -0.2500000000000000000 ) ) ;
#257 = VECTOR ( 'NONE', #163, 1000.000000000000000 ) ;
#258 = EDGE_CURVE ( 'NONE', #190, #63, #178, .T. ) ;
#259 = CARTESIAN_POINT ( 'NONE',  ( -0.2999999999999999889, 3.673940397442059498E-17, -0.9200000000000000400 ) ) ;
#260 = FACE_OUTER_BOUND ( 'NONE', #6, .T. ) ;
#261 = EDGE_LOOP ( 'NONE', ( #180, #23, #150 ) ) ;
#262 = SPHERICAL_SURFACE ( 'NONE', #98, 0.2999999999999999889 ) ;
#263 = FILL_AREA_STYLE ('',( #104 ) ) ;
#264 = DIRECTION ( 'NONE',  ( 0.000000000000000000, 0.000000000000000000, 1.000000000000000000 ) ) ;
#265 = AXIS2_PLACEMENT_3D ( 'NONE', #73, #13, #199 ) ;
#266 = EDGE_CURVE ( 'NONE', #80, #166, #134, .T. ) ;
#267 = DIRECTION ( 'NONE',  ( 0.000000000000000000, 0.000000000000000000, 1.000000000000000000 ) ) ;
#268 = ORIENTED_EDGE ( 'NONE', *, *, #266, .T. ) ;
#269 = CARTESIAN_POINT ( 'NONE',  ( 0.000000000000000000, 0.000000000000000000, -0.07639320225002110831 ) ) ;
#270 = ORIENTED_EDGE ( 'NONE', *, *, #141, .T. ) ;
#271 = MECHANICAL_DESIGN_GEOMETRIC_PRESENTATION_REPRESENTATION (  '', ( #121 ), #106 ) ;
#272 = PRODUCT_DEFINITION_CONTEXT ( 'detailed design', #7, 'design' ) ;
#273 = DIRECTION ( 'NONE',  ( -1.000000000000000000, 0.000000000000000000, 0.000000000000000000 ) ) ;
#274 = ADVANCED_FACE ( 'NONE', ( #40 ), #170, .T. ) ;
#275 = CARTESIAN_POINT ( 'NONE',  ( -0.2999999999999999889, 3.673940397442059498E-17, 0.000000000000000000 ) ) ;
#276 = DIRECTION ( 'NONE',  ( 0.000000000000000000, 0.000000000000000000, 1.000000000000000000 ) ) ;
#277 = EDGE_CURVE ( 'NONE', #83, #66, #310, .T. ) ;
#278 = VERTEX_POINT ( 'NONE', #225 ) ;
#279 = FILL_AREA_STYLE ('',( #189 ) ) ;
#280 = AXIS2_PLACEMENT_3D ( 'NONE', #22, #381, #246 ) ;
#281 = VERTEX_POINT ( 'NONE', #99 ) ;
#282 = MECHANICAL_DESIGN_GEOMETRIC_PRESENTATION_REPRESENTATION (  '', ( #369 ), #151 ) ;
#283 =( LENGTH_UNIT ( ) NAMED_UNIT ( * ) SI_UNIT ( .MILLI., .METRE. ) );
#284 = LINE ( 'NONE', #275, #254 ) ;
#285 = EDGE_CURVE ( 'NONE', #278, #190, #62, .T. ) ;
#286 = DIRECTION ( 'NONE',  ( 0.000000000000000000, 0.000000000000000000, 1.000000000000000000 ) ) ;
#287 = PRODUCT_RELATED_PRODUCT_CATEGORY ( 'part', '', ( #320 ) ) ;
#288 = AXIS2_PLACEMENT_3D ( 'NONE', #297, #350, #18 ) ;
#289 = AXIS2_PLACEMENT_3D ( 'NONE', #193, #39, #223 ) ;
#290 = DIRECTION ( 'NONE',  ( 1.000000000000000000, 0.000000000000000000, 0.000000000000000000 ) ) ;
#291 = DIRECTION ( 'NONE',  ( -1.000000000000000000, 0.000000000000000000, 0.000000000000000000 ) ) ;
#292 = ORIENTED_EDGE ( 'NONE', *, *, #174, .F. ) ;
#293 = DIRECTION ( 'NONE',  ( 1.000000000000000000, 0.000000000000000000, 0.000000000000000000 ) ) ;
#294 = ADVANCED_BREP_SHAPE_REPRESENTATION ( 'UEBK-13653_step', ( #241, #231 ), #344 ) ;
#295 = DIRECTION ( 'NONE',  ( -1.224646799147351975E-16, 1.000000000000000000, 0.000000000000000000 ) ) ;
#296 = DIRECTION ( 'NONE',  ( 0.000000000000000000, 0.000000000000000000, 1.000000000000000000 ) ) ;
#297 = CARTESIAN_POINT ( 'NONE',  ( 0.000000000000000000, 0.2999999999999999889, -0.9200000000000000400 ) ) ;
#298 = CARTESIAN_POINT ( 'NONE',  ( 0.000000000000000000, 0.000000000000000000, -0.3300000000000000155 ) ) ;
#299 = EDGE_LOOP ( 'NONE', ( #145, #270 ) ) ;
#300 = ORIENTED_EDGE ( 'NONE', *, *, #205, .T. ) ;
#301 = CIRCLE ( 'NONE', #3, 0.2000000000000000111 ) ;
#302 = DIRECTION ( 'NONE',  ( -1.000000000000000000, 1.224646799147351975E-16, 0.000000000000000000 ) ) ;
#303 = CIRCLE ( 'NONE', #222, 0.2999999999999999889 ) ;
#304 = FACE_OUTER_BOUND ( 'NONE', #232, .T. ) ;
#305 = ORIENTED_EDGE ( 'NONE', *, *, #71, .F. ) ;
#306 = ADVANCED_FACE ( 'NONE', ( #347 ), #132, .T. ) ;
#307 = EDGE_LOOP ( 'NONE', ( #154, #268, #292, #57 ) ) ;
#308 = APPLICATION_PROTOCOL_DEFINITION ( 'draft international standard', 'automotive_design', 1998, #7 ) ;
#309 = ORIENTED_EDGE ( 'NONE', *, *, #312, .F. ) ;
#310 = CIRCLE ( 'NONE', #359, 0.2999999999999999889 ) ;
#311 = EDGE_LOOP ( 'NONE', ( #203, #331, #300, #33 ) ) ;
#312 = EDGE_CURVE ( 'NONE', #53, #124, #244, .T. ) ;
#313 = CARTESIAN_POINT ( 'NONE',  ( 0.2200000000000000011, 2.694222958124175096E-17, -0.3300000000000000155 ) ) ;
#314 = DIRECTION ( 'NONE',  ( 1.000000000000000000, -0.000000000000000000, 0.000000000000000000 ) ) ;
#315 = EDGE_CURVE ( 'NONE', #83, #124, #194, .T. ) ;
#316 = CARTESIAN_POINT ( 'NONE',  ( 0.4000000000000000222, 0.000000000000000000, 0.000000000000000000 ) ) ;
#317 = FACE_OUTER_BOUND ( 'NONE', #144, .T. ) ;
#318 = AXIS2_PLACEMENT_3D ( 'NONE', #298, #176, #327 ) ;
#319 = ORIENTED_EDGE ( 'NONE', *, *, #126, .T. ) ;
#320 = PRODUCT ( 'UEBK-13653_step', 'UEBK-13653_step', '', ( #122 ) ) ;
#321 = DIRECTION ( 'NONE',  ( 1.000000000000000000, 0.000000000000000000, 0.000000000000000000 ) ) ;
#322 = COLOUR_RGB ( '',0.7921568627450980005, 0.8196078431372548767, 0.9333333333333333481 ) ;
#323 = DIRECTION ( 'NONE',  ( 0.000000000000000000, 0.000000000000000000, -1.000000000000000000 ) ) ;
#324 = DIRECTION ( 'NONE',  ( -1.000000000000000000, 0.000000000000000000, 0.000000000000000000 ) ) ;
#325 = VERTEX_POINT ( 'NONE', #161 ) ;
#326 = CARTESIAN_POINT ( 'NONE',  ( 0.000000000000000000, 0.000000000000000000, -0.07639320225002110831 ) ) ;
#327 = DIRECTION ( 'NONE',  ( -1.000000000000000000, 0.000000000000000000, 0.000000000000000000 ) ) ;
#328 = VERTEX_POINT ( 'NONE', #256 ) ;
#329 = EDGE_CURVE ( 'NONE', #124, #240, #303, .T. ) ;
#330 = DIRECTION ( 'NONE',  ( 0.000000000000000000, 0.000000000000000000, 1.000000000000000000 ) ) ;
#331 = ORIENTED_EDGE ( 'NONE', *, *, #50, .T. ) ;
#332 = SHAPE_DEFINITION_REPRESENTATION ( #343, #294 ) ;
#333 = CARTESIAN_POINT ( 'NONE',  ( 0.000000000000000000, -8.572527594031469492E-17, -0.2999999999999999889 ) ) ;
#334 = SURFACE_STYLE_FILL_AREA ( #279 ) ;
#335 = AXIS2_PLACEMENT_3D ( 'NONE', #386, #26, #273 ) ;
#336 = DIRECTION ( 'NONE',  ( 0.000000000000000000, 0.000000000000000000, 1.000000000000000000 ) ) ;
#337 = ORIENTED_EDGE ( 'NONE', *, *, #329, .F. ) ;
#338 = EDGE_CURVE ( 'NONE', #387, #281, #8, .T. ) ;
#339 = CARTESIAN_POINT ( 'NONE',  ( -0.2000000000000000111, 2.449293598294704997E-17, 0.000000000000000000 ) ) ;
#340 = DIRECTION ( 'NONE',  ( 0.000000000000000000, 0.000000000000000000, 1.000000000000000000 ) ) ;
#341 = ADVANCED_FACE ( 'NONE', ( #260 ), #372, .F. ) ;
#342 = ORIENTED_EDGE ( 'NONE', *, *, #312, .T. ) ;
#343 = PRODUCT_DEFINITION_SHAPE ( 'NONE', 'NONE',  #380 ) ;
#344 =( GEOMETRIC_REPRESENTATION_CONTEXT ( 3 ) GLOBAL_UNCERTAINTY_ASSIGNED_CONTEXT ( ( #385 ) ) GLOBAL_UNIT_ASSIGNED_CONTEXT ( ( #283, #123, #5 ) ) REPRESENTATION_CONTEXT ( 'NONE', 'WORKASPACE' ) );
#345 = DIRECTION ( 'NONE',  ( 0.000000000000000000, 0.000000000000000000, 1.000000000000000000 ) ) ;
#346 = DIRECTION ( 'NONE',  ( 0.000000000000000000, 0.000000000000000000, 1.000000000000000000 ) ) ;
#347 = FACE_OUTER_BOUND ( 'NONE', #355, .T. ) ;
#348 = FACE_OUTER_BOUND ( 'NONE', #299, .T. ) ;
#349 = CARTESIAN_POINT ( 'NONE',  ( 0.000000000000000000, 0.000000000000000000, -0.3300000000000000155 ) ) ;
#350 = DIRECTION ( 'NONE',  ( 0.000000000000000000, 0.000000000000000000, -1.000000000000000000 ) ) ;
#351 = SURFACE_SIDE_STYLE ('',( #253 ) ) ;
#352 = DIRECTION ( 'NONE',  ( 0.000000000000000000, 0.000000000000000000, -1.000000000000000000 ) ) ;
#353 = DIRECTION ( 'NONE',  ( 1.000000000000000000, 0.000000000000000000, 0.000000000000000000 ) ) ;
#354 = ORIENTED_EDGE ( 'NONE', *, *, #205, .F. ) ;
#355 = EDGE_LOOP ( 'NONE', ( #216, #4, #204, #107, #28 ) ) ;
#356 = DIRECTION ( 'NONE',  ( 1.000000000000000000, 0.000000000000000000, 0.000000000000000000 ) ) ;
#357 = ORIENTED_EDGE ( 'NONE', *, *, #277, .F. ) ;
#358 = VECTOR ( 'NONE', #195, 1000.000000000000000 ) ;
#359 = AXIS2_PLACEMENT_3D ( 'NONE', #38, #340, #69 ) ;
#360 = SURFACE_STYLE_USAGE ( .BOTH. , #64 ) ;
#361 = ORIENTED_EDGE ( 'NONE', *, *, #32, .T. ) ;
#362 = EDGE_CURVE ( 'NONE', #80, #387, #36, .T. ) ;
#363 = DIRECTION ( 'NONE',  ( 0.000000000000000000, 0.000000000000000000, 1.000000000000000000 ) ) ;
#364 =( NAMED_UNIT ( * ) SI_UNIT ( $, .STERADIAN. ) SOLID_ANGLE_UNIT ( ) );
#365 = EDGE_CURVE ( 'NONE', #387, #80, #20, .T. ) ;
#366 = PRESENTATION_STYLE_ASSIGNMENT (( #48 ) ) ;
#367 = CIRCLE ( 'NONE', #155, 0.2999999999999999889 ) ;
#368 = CARTESIAN_POINT ( 'NONE',  ( -0.4000000000000000222, 4.898587196589409994E-17, -0.9200000000000000400 ) ) ;
#369 = STYLED_ITEM ( 'NONE', ( #208 ), #294 ) ;
#370 =( NAMED_UNIT ( * ) PLANE_ANGLE_UNIT ( ) SI_UNIT ( $, .RADIAN. ) );
#371 = CYLINDRICAL_SURFACE ( 'NONE', #51, 0.4000000000000000222 ) ;
#372 = PLANE ( 'NONE',  #239 ) ;
#373 = DIRECTION ( 'NONE',  ( 0.000000000000000000, 0.000000000000000000, 1.000000000000000000 ) ) ;
#374 = DIRECTION ( 'NONE',  ( 0.000000000000000000, 0.000000000000000000, 1.000000000000000000 ) ) ;
#375 = AXIS2_PLACEMENT_3D ( 'NONE', #333, #314, #70 ) ;
#376 = CIRCLE ( 'NONE', #289, 0.4000000000000000222 ) ;
#377 = CARTESIAN_POINT ( 'NONE',  ( 0.2999999999999999889, 0.000000000000000000, -0.9200000000000000400 ) ) ;
#378 = AXIS2_PLACEMENT_3D ( 'NONE', #91, #159, #31 ) ;
#379 = LINE ( 'NONE', #77, #358 ) ;
#380 = PRODUCT_DEFINITION ( 'UNKNOWN', '', #12, #272 ) ;
#381 = DIRECTION ( 'NONE',  ( 0.000000000000000000, 0.000000000000000000, 1.000000000000000000 ) ) ;
#382 = EDGE_LOOP ( 'NONE', ( #210, #84, #235, #148 ) ) ;
#383 = AXIS2_PLACEMENT_3D ( 'NONE', #97, #296, #101 ) ;
#384 = ORIENTED_EDGE ( 'NONE', *, *, #329, .T. ) ;
#385 = UNCERTAINTY_MEASURE_WITH_UNIT (LENGTH_MEASURE( 1.000000000000000082E-05 ), #283, 'distance_accuracy_value', 'NONE');
#386 = CARTESIAN_POINT ( 'NONE',  ( 0.000000000000000000, 0.000000000000000000, -0.2500000000000000000 ) ) ;
#387 = VERTEX_POINT ( 'NONE', #125 ) ;
#388 = CARTESIAN_POINT ( 'NONE',  ( 0.000000000000000000, 0.4000000000000000222, -1.000000000000000000 ) ) ;
ENDSEC;
END-ISO-10303-21;
