ISO-10303-21;
HEADER;
FILE_DESCRIPTION (( 'STEP AP214' ),
    '1' );
FILE_NAME ('UEBK-13657_step.STEP',
    '2023-10-06T13:03:50',
    ( '' ),
    ( '' ),
    'SwSTEP 2.0',
    'SolidWorks 2022',
    '' );
FILE_SCHEMA (( 'AUTOMOTIVE_DESIGN' ));
ENDSEC;

DATA;
#1 = CARTESIAN_POINT ( 'NONE',  ( -12.98744628247324151, 3.061616997868383018E-17, -0.2500000000000000000 ) ) ;
#2 = CIRCLE ( 'NONE', #53, 0.2500000000000000000 ) ;
#3 =( GEOMETRIC_REPRESENTATION_CONTEXT ( 3 ) GLOBAL_UNCERTAINTY_ASSIGNED_CONTEXT ( ( #187 ) ) GLOBAL_UNIT_ASSIGNED_CONTEXT ( ( #109, #135, #80 ) ) REPRESENTATION_CONTEXT ( 'NONE', 'WORKASPACE' ) );
#4 = CIRCLE ( 'NONE', #261, 0.4500000000000000111 ) ;
#5 = PRODUCT_DEFINITION ( 'UNKNOWN', '', #262, #214 ) ;
#6 = CARTESIAN_POINT ( 'NONE',  ( 6.109008472635089504, 0.000000000000000000, 0.4500000000000000111 ) ) ;
#7 = CARTESIAN_POINT ( 'NONE',  ( 5.554066214852920069, 0.000000000000000000, 0.000000000000000000 ) ) ;
#8 = DIRECTION ( 'NONE',  ( 1.000000000000000000, 0.000000000000000000, 0.000000000000000000 ) ) ;
#9 = CARTESIAN_POINT ( 'NONE',  ( -12.98744628247324151, 0.000000000000000000, 0.4149999999999999800 ) ) ;
#10 = DIRECTION ( 'NONE',  ( 0.000000000000000000, 0.000000000000000000, 1.000000000000000000 ) ) ;
#11 = AXIS2_PLACEMENT_3D ( 'NONE', #126, #154, #183 ) ;
#12 = AXIS2_PLACEMENT_3D ( 'NONE', #325, #13, #127 ) ;
#13 = DIRECTION ( 'NONE',  ( -1.000000000000000000, 0.000000000000000000, 0.000000000000000000 ) ) ;
#14 = ADVANCED_FACE ( 'NONE', ( #365 ), #223, .T. ) ;
#15 = CARTESIAN_POINT ( 'NONE',  ( 5.359008472635090392, 3.857637417314162689E-17, 0.3150000000000000022 ) ) ;
#16 = ORIENTED_EDGE ( 'NONE', *, *, #279, .F. ) ;
#17 = DIRECTION ( 'NONE',  ( 0.000000000000000000, 1.224646799147353454E-16, 1.000000000000000000 ) ) ;
#18 = CIRCLE ( 'NONE', #64, 0.3150000000000000022 ) ;
#19 = CARTESIAN_POINT ( 'NONE',  ( 5.259008472635089859, 0.000000000000000000, 0.000000000000000000 ) ) ;
#20 = CARTESIAN_POINT ( 'NONE',  ( -12.98744628247324151, 0.000000000000000000, 0.000000000000000000 ) ) ;
#21 = EDGE_LOOP ( 'NONE', ( #246, #136 ) ) ;
#22 = DIRECTION ( 'NONE',  ( -1.000000000000000000, 0.000000000000000000, 0.000000000000000000 ) ) ;
#23 = EDGE_LOOP ( 'NONE', ( #49, #104, #73, #207 ) ) ;
#24 = CARTESIAN_POINT ( 'NONE',  ( 5.259008472635089859, 0.000000000000000000, -0.3150000000000000022 ) ) ;
#25 = ADVANCED_FACE ( 'NONE', ( #275 ), #367, .T. ) ;
#26 = ORIENTED_EDGE ( 'NONE', *, *, #250, .F. ) ;
#27 = VECTOR ( 'NONE', #227, 1000.000000000000000 ) ;
#28 = ORIENTED_EDGE ( 'NONE', *, *, #69, .T. ) ;
#29 = AXIS2_PLACEMENT_3D ( 'NONE', #106, #51, #333 ) ;
#30 = DIRECTION ( 'NONE',  ( 0.9063077870366450517, 0.000000000000000000, -0.4226182617407099884 ) ) ;
#31 = ADVANCED_FACE ( 'NONE', ( #132 ), #88, .T. ) ;
#32 = CARTESIAN_POINT ( 'NONE',  ( 6.109008472635089504, 0.000000000000000000, 0.000000000000000000 ) ) ;
#33 = CARTESIAN_POINT ( 'NONE',  ( 5.554066214852920069, 5.510910596163088939E-17, 0.4500000000000000111 ) ) ;
#34 = AXIS2_PLACEMENT_3D ( 'NONE', #96, #267, #179 ) ;
#35 = CARTESIAN_POINT ( 'NONE',  ( -12.98744628247324151, 0.000000000000000000, 0.000000000000000000 ) ) ;
#36 = FACE_OUTER_BOUND ( 'NONE', #238, .T. ) ;
#37 = ADVANCED_FACE ( 'NONE', ( #112, #339 ), #52, .F. ) ;
#38 = DIRECTION ( 'NONE',  ( 0.000000000000000000, 1.000000000000000000, -1.224646799147353207E-16 ) ) ;
#39 = ORIENTED_EDGE ( 'NONE', *, *, #346, .F. ) ;
#40 = FACE_OUTER_BOUND ( 'NONE', #269, .T. ) ;
#41 = FACE_OUTER_BOUND ( 'NONE', #23, .T. ) ;
#42 = EDGE_LOOP ( 'NONE', ( #157, #16, #155, #335 ) ) ;
#43 = CYLINDRICAL_SURFACE ( 'NONE', #11, 0.4500000000000000111 ) ;
#44 = FILL_AREA_STYLE ('',( #76 ) ) ;
#45 = DIRECTION ( 'NONE',  ( 1.000000000000000000, 0.000000000000000000, 0.000000000000000000 ) ) ;
#46 = AXIS2_PLACEMENT_3D ( 'NONE', #355, #181, #72 ) ;
#47 =( GEOMETRIC_REPRESENTATION_CONTEXT ( 3 ) GLOBAL_UNCERTAINTY_ASSIGNED_CONTEXT ( ( #120 ) ) GLOBAL_UNIT_ASSIGNED_CONTEXT ( ( #84, #244, #366 ) ) REPRESENTATION_CONTEXT ( 'NONE', 'WORKASPACE' ) );
#48 = EDGE_LOOP ( 'NONE', ( #141, #100 ) ) ;
#49 = ORIENTED_EDGE ( 'NONE', *, *, #360, .T. ) ;
#50 = PRODUCT_RELATED_PRODUCT_CATEGORY ( 'part', '', ( #248 ) ) ;
#51 = DIRECTION ( 'NONE',  ( -1.000000000000000000, 0.000000000000000000, 0.000000000000000000 ) ) ;
#52 = PLANE ( 'NONE',  #370 ) ;
#53 = AXIS2_PLACEMENT_3D ( 'NONE', #167, #22, #336 ) ;
#54 = STYLED_ITEM ( 'NONE', ( #361 ), #95 ) ;
#55 = CARTESIAN_POINT ( 'NONE',  ( 5.554066214852920069, 0.000000000000000000, 0.000000000000000000 ) ) ;
#56 = CIRCLE ( 'NONE', #98, 0.4149999999999999800 ) ;
#57 = DIRECTION ( 'NONE',  ( -1.000000000000000000, 0.000000000000000000, 0.000000000000000000 ) ) ;
#58 = CIRCLE ( 'NONE', #282, 0.09999999999999999167 ) ;
#59 = MANIFOLD_SOLID_BREP ( 'NONE', #77 ) ;
#60 = AXIS2_PLACEMENT_3D ( 'NONE', #171, #45, #251 ) ;
#61 = DIRECTION ( 'NONE',  ( -1.000000000000000000, 0.000000000000000000, 0.000000000000000000 ) ) ;
#62 = DIRECTION ( 'NONE',  ( -1.000000000000000000, 0.000000000000000000, 0.000000000000000000 ) ) ;
#63 = AXIS2_PLACEMENT_3D ( 'NONE', #110, #215, #342 ) ;
#64 = AXIS2_PLACEMENT_3D ( 'NONE', #203, #62, #297 ) ;
#65 = CARTESIAN_POINT ( 'NONE',  ( 5.554066214852920069, 5.510910596163088939E-17, 0.4500000000000000111 ) ) ;
#66 = ADVANCED_FACE ( 'NONE', ( #145 ), #232, .T. ) ;
#67 = DIRECTION ( 'NONE',  ( 0.000000000000000000, 0.000000000000000000, 1.000000000000000000 ) ) ;
#68 = VERTEX_POINT ( 'NONE', #257 ) ;
#69 = EDGE_CURVE ( 'NONE', #211, #284, #323, .T. ) ;
#70 = CARTESIAN_POINT ( 'NONE',  ( 6.109008472635089504, 5.510910596163088939E-17, -0.4500000000000000111 ) ) ;
#71 = ORIENTED_EDGE ( 'NONE', *, *, #296, .T. ) ;
#72 = DIRECTION ( 'NONE',  ( 0.000000000000000000, 0.000000000000000000, -1.000000000000000000 ) ) ;
#73 = ORIENTED_EDGE ( 'NONE', *, *, #321, .F. ) ;
#74 = COLOUR_RGB ( '',0.9686274509803921573, 0.8784313725490195957, 0.5999999999999999778 ) ;
#75 = DIRECTION ( 'NONE',  ( 0.000000000000000000, 0.000000000000000000, -1.000000000000000000 ) ) ;
#76 = FILL_AREA_STYLE_COLOUR ( '', #74 ) ;
#77 = CLOSED_SHELL ( 'NONE', ( #237, #66, #25, #200, #185, #31, #307, #82, #37, #264, #14, #280, #97 ) ) ;
#78 = DIRECTION ( 'NONE',  ( -1.000000000000000000, 0.000000000000000000, 0.000000000000000000 ) ) ;
#79 = ORIENTED_EDGE ( 'NONE', *, *, #320, .T. ) ;
#80 =( NAMED_UNIT ( * ) SI_UNIT ( $, .STERADIAN. ) SOLID_ANGLE_UNIT ( ) );
#81 = EDGE_LOOP ( 'NONE', ( #247, #301, #162, #304 ) ) ;
#82 = ADVANCED_FACE ( 'NONE', ( #256 ), #143, .T. ) ;
#83 = ORIENTED_EDGE ( 'NONE', *, *, #163, .T. ) ;
#84 =( LENGTH_UNIT ( ) NAMED_UNIT ( * ) SI_UNIT ( .MILLI., .METRE. ) );
#85 = DIRECTION ( 'NONE',  ( 1.000000000000000000, 0.000000000000000000, 0.000000000000000000 ) ) ;
#86 = VECTOR ( 'NONE', #57, 1000.000000000000000 ) ;
#87 = CARTESIAN_POINT ( 'NONE',  ( 5.479008472635090499, 5.082284216461515650E-17, -0.4149999999999999800 ) ) ;
#88 = TOROIDAL_SURFACE ( 'NONE', #63, 0.3150000000000000022, 0.1000000000000000056 ) ;
#89 = FILL_AREA_STYLE_COLOUR ( '', #241 ) ;
#90 = CARTESIAN_POINT ( 'NONE',  ( -12.98744628247324151, 5.082284216461515650E-17, -0.4149999999999999800 ) ) ;
#91 = EDGE_CURVE ( 'NONE', #313, #306, #177, .T. ) ;
#92 =( NAMED_UNIT ( * ) PLANE_ANGLE_UNIT ( ) SI_UNIT ( $, .RADIAN. ) );
#93 = EDGE_CURVE ( 'NONE', #211, #243, #118, .T. ) ;
#94 = CARTESIAN_POINT ( 'NONE',  ( -12.98744628247324151, 0.000000000000000000, 0.000000000000000000 ) ) ;
#95 = ADVANCED_BREP_SHAPE_REPRESENTATION ( 'UEBK-13657_step', ( #59, #139 ), #47 ) ;
#96 = CARTESIAN_POINT ( 'NONE',  ( 5.479008472635090499, 0.000000000000000000, 0.000000000000000000 ) ) ;
#97 = ADVANCED_FACE ( 'NONE', ( #176 ), #226, .F. ) ;
#98 = AXIS2_PLACEMENT_3D ( 'NONE', #150, #263, #147 ) ;
#99 = FACE_OUTER_BOUND ( 'NONE', #184, .T. ) ;
#100 = ORIENTED_EDGE ( 'NONE', *, *, #166, .T. ) ;
#101 = ORIENTED_EDGE ( 'NONE', *, *, #91, .F. ) ;
#102 = DIRECTION ( 'NONE',  ( 0.000000000000000000, 0.000000000000000000, 1.000000000000000000 ) ) ;
#103 = VECTOR ( 'NONE', #61, 1000.000000000000000 ) ;
#104 = ORIENTED_EDGE ( 'NONE', *, *, #91, .T. ) ;
#105 = AXIS2_PLACEMENT_3D ( 'NONE', #308, #221, #281 ) ;
#106 = CARTESIAN_POINT ( 'NONE',  ( 5.109008472635089504, 0.000000000000000000, 0.000000000000000000 ) ) ;
#107 = VERTEX_POINT ( 'NONE', #350 ) ;
#108 = VECTOR ( 'NONE', #125, 1000.000000000000000 ) ;
#109 =( LENGTH_UNIT ( ) NAMED_UNIT ( * ) SI_UNIT ( .MILLI., .METRE. ) );
#110 = CARTESIAN_POINT ( 'NONE',  ( 5.359008472635090392, 0.000000000000000000, 0.000000000000000000 ) ) ;
#111 = SPHERICAL_SURFACE ( 'NONE', #276, 0.2500000000000000000 ) ;
#112 = FACE_BOUND ( 'NONE', #21, .T. ) ;
#113 = SURFACE_SIDE_STYLE ('',( #164 ) ) ;
#114 = DIRECTION ( 'NONE',  ( 0.000000000000000000, 0.000000000000000000, 1.000000000000000000 ) ) ;
#115 = DIRECTION ( 'NONE',  ( 0.000000000000000000, 0.000000000000000000, -1.000000000000000000 ) ) ;
#116 = ORIENTED_EDGE ( 'NONE', *, *, #225, .T. ) ;
#117 = CIRCLE ( 'NONE', #130, 0.2500000000000000000 ) ;
#118 = LINE ( 'NONE', #33, #27 ) ;
#119 = SURFACE_SIDE_STYLE ('',( #123 ) ) ;
#120 = UNCERTAINTY_MEASURE_WITH_UNIT (LENGTH_MEASURE( 1.000000000000000082E-05 ), #84, 'distance_accuracy_value', 'NONE');
#121 = LINE ( 'NONE', #90, #103 ) ;
#122 = EDGE_CURVE ( 'NONE', #193, #284, #56, .T. ) ;
#123 = SURFACE_STYLE_FILL_AREA ( #149 ) ;
#124 = DIRECTION ( 'NONE',  ( 0.000000000000000000, 0.000000000000000000, 1.000000000000000000 ) ) ;
#125 = DIRECTION ( 'NONE',  ( -1.000000000000000000, 0.000000000000000000, 0.000000000000000000 ) ) ;
#126 = CARTESIAN_POINT ( 'NONE',  ( -12.98744628247324151, 0.000000000000000000, 0.000000000000000000 ) ) ;
#127 = DIRECTION ( 'NONE',  ( 0.000000000000000000, 0.000000000000000000, 1.000000000000000000 ) ) ;
#128 = DIRECTION ( 'NONE',  ( 0.000000000000000000, 0.000000000000000000, -1.000000000000000000 ) ) ;
#129 = VERTEX_POINT ( 'NONE', #6 ) ;
#130 = AXIS2_PLACEMENT_3D ( 'NONE', #174, #344, #199 ) ;
#131 = DIRECTION ( 'NONE',  ( -1.000000000000000000, 0.000000000000000000, 0.000000000000000000 ) ) ;
#132 = FACE_OUTER_BOUND ( 'NONE', #354, .T. ) ;
#133 = AXIS2_PLACEMENT_3D ( 'NONE', #94, #303, #10 ) ;
#134 = EDGE_CURVE ( 'NONE', #142, #219, #258, .T. ) ;
#135 =( NAMED_UNIT ( * ) PLANE_ANGLE_UNIT ( ) SI_UNIT ( $, .RADIAN. ) );
#136 = ORIENTED_EDGE ( 'NONE', *, *, #320, .F. ) ;
#137 = CIRCLE ( 'NONE', #348, 0.4500000000000000111 ) ;
#138 = ORIENTED_EDGE ( 'NONE', *, *, #279, .T. ) ;
#139 = AXIS2_PLACEMENT_3D ( 'NONE', #218, #252, #340 ) ;
#140 = CARTESIAN_POINT ( 'NONE',  ( 5.109008472635089504, 0.000000000000000000, 0.000000000000000000 ) ) ;
#141 = ORIENTED_EDGE ( 'NONE', *, *, #321, .T. ) ;
#142 = VERTEX_POINT ( 'NONE', #87 ) ;
#143 = CYLINDRICAL_SURFACE ( 'NONE', #178, 0.2500000000000000000 ) ;
#144 = EDGE_CURVE ( 'NONE', #243, #219, #4, .T. ) ;
#145 = FACE_OUTER_BOUND ( 'NONE', #81, .T. ) ;
#146 = EDGE_CURVE ( 'NONE', #129, #243, #317, .T. ) ;
#147 = DIRECTION ( 'NONE',  ( 0.000000000000000000, 0.000000000000000000, -1.000000000000000000 ) ) ;
#148 = UNCERTAINTY_MEASURE_WITH_UNIT (LENGTH_MEASURE( 1.000000000000000082E-05 ), #293, 'distance_accuracy_value', 'NONE');
#149 = FILL_AREA_STYLE ('',( #89 ) ) ;
#150 = CARTESIAN_POINT ( 'NONE',  ( 5.359008472635090392, 0.000000000000000000, 0.000000000000000000 ) ) ;
#151 = CIRCLE ( 'NONE', #105, 0.2500000000000000000 ) ;
#152 = CARTESIAN_POINT ( 'NONE',  ( -12.98744628247324151, 5.510910596163088939E-17, -0.4500000000000000111 ) ) ;
#153 = CIRCLE ( 'NONE', #318, 0.09999999999999999167 ) ;
#154 = DIRECTION ( 'NONE',  ( -1.000000000000000000, 0.000000000000000000, 0.000000000000000000 ) ) ;
#155 = ORIENTED_EDGE ( 'NONE', *, *, #134, .T. ) ;
#156 = CYLINDRICAL_SURFACE ( 'NONE', #327, 0.4149999999999999800 ) ;
#157 = ORIENTED_EDGE ( 'NONE', *, *, #93, .F. ) ;
#158 = CARTESIAN_POINT ( 'NONE',  ( 5.554066214852920069, 0.000000000000000000, -0.4500000000000000111 ) ) ;
#159 = EDGE_LOOP ( 'NONE', ( #173, #83, #328, #286 ) ) ;
#160 = CARTESIAN_POINT ( 'NONE',  ( 5.359008472635090392, 0.000000000000000000, -0.3150000000000000022 ) ) ;
#161 = STYLED_ITEM ( 'NONE', ( #319 ), #59 ) ;
#162 = ORIENTED_EDGE ( 'NONE', *, *, #144, .T. ) ;
#163 = EDGE_CURVE ( 'NONE', #142, #193, #121, .T. ) ;
#164 = SURFACE_STYLE_FILL_AREA ( #44 ) ;
#165 = EDGE_LOOP ( 'NONE', ( #195, #116, #254, #343 ) ) ;
#166 = EDGE_CURVE ( 'NONE', #306, #68, #117, .T. ) ;
#167 = CARTESIAN_POINT ( 'NONE',  ( 5.259008472635089859, 0.000000000000000000, 0.000000000000000000 ) ) ;
#168 = ORIENTED_EDGE ( 'NONE', *, *, #197, .T. ) ;
#169 = DIRECTION ( 'NONE',  ( 1.000000000000000000, 0.000000000000000000, 0.000000000000000000 ) ) ;
#170 = AXIS2_PLACEMENT_3D ( 'NONE', #358, #352, #102 ) ;
#171 = CARTESIAN_POINT ( 'NONE',  ( 5.554066214852920069, 0.000000000000000000, 0.000000000000000000 ) ) ;
#172 = ORIENTED_EDGE ( 'NONE', *, *, #122, .F. ) ;
#173 = ORIENTED_EDGE ( 'NONE', *, *, #277, .T. ) ;
#174 = CARTESIAN_POINT ( 'NONE',  ( 5.109008472635089504, 0.000000000000000000, 0.000000000000000000 ) ) ;
#175 = EDGE_CURVE ( 'NONE', #369, #107, #18, .T. ) ;
#176 = FACE_OUTER_BOUND ( 'NONE', #309, .T. ) ;
#177 = LINE ( 'NONE', #1, #302 ) ;
#178 = AXIS2_PLACEMENT_3D ( 'NONE', #35, #289, #322 ) ;
#179 = DIRECTION ( 'NONE',  ( 0.000000000000000000, 0.000000000000000000, 1.000000000000000000 ) ) ;
#180 = CIRCLE ( 'NONE', #315, 0.4500000000000000111 ) ;
#181 = DIRECTION ( 'NONE',  ( 1.000000000000000000, 0.000000000000000000, 0.000000000000000000 ) ) ;
#182 = ORIENTED_EDGE ( 'NONE', *, *, #233, .T. ) ;
#183 = DIRECTION ( 'NONE',  ( 0.000000000000000000, 0.000000000000000000, 1.000000000000000000 ) ) ;
#184 = EDGE_LOOP ( 'NONE', ( #190, #283, #172, #26 ) ) ;
#185 = ADVANCED_FACE ( 'NONE', ( #99 ), #273, .T. ) ;
#186 = DIRECTION ( 'NONE',  ( -1.000000000000000000, 0.000000000000000000, 0.000000000000000000 ) ) ;
#187 = UNCERTAINTY_MEASURE_WITH_UNIT (LENGTH_MEASURE( 1.000000000000000082E-05 ), #109, 'distance_accuracy_value', 'NONE');
#188 = DIRECTION ( 'NONE',  ( 0.000000000000000000, 0.000000000000000000, 1.000000000000000000 ) ) ;
#189 = DIRECTION ( 'NONE',  ( 0.000000000000000000, 0.000000000000000000, -1.000000000000000000 ) ) ;
#190 = ORIENTED_EDGE ( 'NONE', *, *, #334, .F. ) ;
#191 = DIRECTION ( 'NONE',  ( 0.000000000000000000, 0.000000000000000000, 1.000000000000000000 ) ) ;
#192 = ORIENTED_EDGE ( 'NONE', *, *, #146, .F. ) ;
#193 = VERTEX_POINT ( 'NONE', #332 ) ;
#194 = CIRCLE ( 'NONE', #34, 0.4149999999999999800 ) ;
#195 = ORIENTED_EDGE ( 'NONE', *, *, #233, .F. ) ;
#196 = DIRECTION ( 'NONE',  ( -1.000000000000000000, 0.000000000000000000, 0.000000000000000000 ) ) ;
#197 = EDGE_CURVE ( 'NONE', #311, #68, #206, .T. ) ;
#198 = AXIS2_PLACEMENT_3D ( 'NONE', #294, #205, #188 ) ;
#199 = DIRECTION ( 'NONE',  ( 0.000000000000000000, 0.000000000000000000, 1.000000000000000000 ) ) ;
#200 = ADVANCED_FACE ( 'NONE', ( #41 ), #326, .T. ) ;
#201 = CIRCLE ( 'NONE', #331, 0.3150000000000000022 ) ;
#202 =( NAMED_UNIT ( * ) SI_UNIT ( $, .STERADIAN. ) SOLID_ANGLE_UNIT ( ) );
#203 = CARTESIAN_POINT ( 'NONE',  ( 5.259008472635089859, 0.000000000000000000, 0.000000000000000000 ) ) ;
#204 = SURFACE_STYLE_USAGE ( .BOTH. , #119 ) ;
#205 = DIRECTION ( 'NONE',  ( -1.000000000000000000, 0.000000000000000000, 0.000000000000000000 ) ) ;
#206 = LINE ( 'NONE', #208, #108 ) ;
#207 = ORIENTED_EDGE ( 'NONE', *, *, #197, .F. ) ;
#208 = CARTESIAN_POINT ( 'NONE',  ( -12.98744628247324151, 0.000000000000000000, 0.2500000000000000000 ) ) ;
#209 = CARTESIAN_POINT ( 'NONE',  ( -12.98744628247324151, 0.000000000000000000, 0.000000000000000000 ) ) ;
#210 = CARTESIAN_POINT ( 'NONE',  ( 5.554066214852920069, 0.000000000000000000, 0.000000000000000000 ) ) ;
#211 = VERTEX_POINT ( 'NONE', #234 ) ;
#212 = APPLICATION_PROTOCOL_DEFINITION ( 'draft international standard', 'automotive_design', 1998, #217 ) ;
#213 = ORIENTED_EDGE ( 'NONE', *, *, #166, .F. ) ;
#214 = PRODUCT_DEFINITION_CONTEXT ( 'detailed design', #239, 'design' ) ;
#215 = DIRECTION ( 'NONE',  ( 1.000000000000000000, 0.000000000000000000, 0.000000000000000000 ) ) ;
#216 = EDGE_LOOP ( 'NONE', ( #272, #266 ) ) ;
#217 = APPLICATION_CONTEXT ( 'automotive_design' ) ;
#218 = CARTESIAN_POINT ( 'NONE',  ( 0.000000000000000000, 0.000000000000000000, 0.000000000000000000 ) ) ;
#219 = VERTEX_POINT ( 'NONE', #158 ) ;
#220 = EDGE_CURVE ( 'NONE', #107, #284, #153, .T. ) ;
#221 = DIRECTION ( 'NONE',  ( -1.000000000000000000, 0.000000000000000000, 0.000000000000000000 ) ) ;
#222 = CARTESIAN_POINT ( 'NONE',  ( 5.259008472635089859, 0.000000000000000000, -0.4149999999999999800 ) ) ;
#223 = CONICAL_SURFACE ( 'NONE', #60, 0.4500000000000000111, 0.4363323129985940407 ) ;
#224 = ORIENTED_EDGE ( 'NONE', *, *, #220, .F. ) ;
#225 = EDGE_CURVE ( 'NONE', #235, #129, #362, .T. ) ;
#226 = PLANE ( 'NONE',  #230 ) ;
#227 = DIRECTION ( 'NONE',  ( 0.9063077870366450517, 5.175581015019788200E-17, 0.4226182617407099884 ) ) ;
#228 = CIRCLE ( 'NONE', #46, 0.4149999999999999800 ) ;
#229 = DIRECTION ( 'NONE',  ( -1.000000000000000000, 0.000000000000000000, 0.000000000000000000 ) ) ;
#230 = AXIS2_PLACEMENT_3D ( 'NONE', #32, #292, #124 ) ;
#231 = CARTESIAN_POINT ( 'NONE',  ( 5.554066214852920069, 0.000000000000000000, -0.4500000000000000111 ) ) ;
#232 = CONICAL_SURFACE ( 'NONE', #290, 0.4500000000000000111, 0.4363323129985940407 ) ;
#233 = EDGE_CURVE ( 'NONE', #235, #219, #324, .T. ) ;
#234 = CARTESIAN_POINT ( 'NONE',  ( 5.479008472635090499, 0.000000000000000000, 0.4149999999999999800 ) ) ;
#235 = VERTEX_POINT ( 'NONE', #70 ) ;
#236 = CARTESIAN_POINT ( 'NONE',  ( 5.109008472635089504, 3.061616997868383018E-17, -0.2500000000000000000 ) ) ;
#237 = ADVANCED_FACE ( 'NONE', ( #36 ), #43, .T. ) ;
#238 = EDGE_LOOP ( 'NONE', ( #278, #182, #253, #192 ) ) ;
#239 = APPLICATION_CONTEXT ( 'automotive_design' ) ;
#240 = CARTESIAN_POINT ( 'NONE',  ( 5.359008472635090392, 5.082284216461516266E-17, 0.4149999999999999800 ) ) ;
#241 = COLOUR_RGB ( '',0.9686274509803921573, 0.8784313725490195957, 0.5999999999999999778 ) ;
#242 = DIRECTION ( 'NONE',  ( -1.000000000000000000, 0.000000000000000000, 0.000000000000000000 ) ) ;
#243 = VERTEX_POINT ( 'NONE', #65 ) ;
#244 =( NAMED_UNIT ( * ) PLANE_ANGLE_UNIT ( ) SI_UNIT ( $, .RADIAN. ) );
#245 = SURFACE_STYLE_USAGE ( .BOTH. , #113 ) ;
#246 = ORIENTED_EDGE ( 'NONE', *, *, #360, .F. ) ;
#247 = ORIENTED_EDGE ( 'NONE', *, *, #277, .F. ) ;
#248 = PRODUCT ( 'UEBK-13657_step', 'UEBK-13657_step', '', ( #368 ) ) ;
#249 = CARTESIAN_POINT ( 'NONE',  ( 6.109008472635089504, 0.000000000000000000, 0.000000000000000000 ) ) ;
#250 = EDGE_CURVE ( 'NONE', #369, #193, #58, .T. ) ;
#251 = DIRECTION ( 'NONE',  ( 0.000000000000000000, 0.000000000000000000, -1.000000000000000000 ) ) ;
#252 = DIRECTION ( 'NONE',  ( 0.000000000000000000, 0.000000000000000000, 1.000000000000000000 ) ) ;
#253 = ORIENTED_EDGE ( 'NONE', *, *, #144, .F. ) ;
#254 = ORIENTED_EDGE ( 'NONE', *, *, #146, .T. ) ;
#255 = SHAPE_DEFINITION_REPRESENTATION ( #310, #95 ) ;
#256 = FACE_OUTER_BOUND ( 'NONE', #341, .T. ) ;
#257 = CARTESIAN_POINT ( 'NONE',  ( 5.109008472635089504, 0.000000000000000000, 0.2500000000000000000 ) ) ;
#258 = LINE ( 'NONE', #231, #316 ) ;
#259 = MECHANICAL_DESIGN_GEOMETRIC_PRESENTATION_REPRESENTATION (  '', ( #161 ), #305 ) ;
#260 = DIRECTION ( 'NONE',  ( 0.000000000000000000, 0.000000000000000000, -1.000000000000000000 ) ) ;
#261 = AXIS2_PLACEMENT_3D ( 'NONE', #7, #349, #288 ) ;
#262 = PRODUCT_DEFINITION_FORMATION_WITH_SPECIFIED_SOURCE ( 'ANY', '', #248, .NOT_KNOWN. ) ;
#263 = DIRECTION ( 'NONE',  ( 1.000000000000000000, 0.000000000000000000, 0.000000000000000000 ) ) ;
#264 = ADVANCED_FACE ( 'NONE', ( #40 ), #156, .T. ) ;
#265 = FACE_OUTER_BOUND ( 'NONE', #165, .T. ) ;
#266 = ORIENTED_EDGE ( 'NONE', *, *, #334, .T. ) ;
#267 = DIRECTION ( 'NONE',  ( -1.000000000000000000, 0.000000000000000000, 0.000000000000000000 ) ) ;
#268 = CYLINDRICAL_SURFACE ( 'NONE', #12, 0.4500000000000000111 ) ;
#269 = EDGE_LOOP ( 'NONE', ( #357, #138, #28, #71 ) ) ;
#270 = AXIS2_PLACEMENT_3D ( 'NONE', #20, #196, #114 ) ;
#271 = DIRECTION ( 'NONE',  ( -1.000000000000000000, 0.000000000000000000, 0.000000000000000000 ) ) ;
#272 = ORIENTED_EDGE ( 'NONE', *, *, #175, .T. ) ;
#273 = TOROIDAL_SURFACE ( 'NONE', #372, 0.3150000000000000022, 0.1000000000000000056 ) ;
#274 = APPLICATION_PROTOCOL_DEFINITION ( 'draft international standard', 'automotive_design', 1998, #239 ) ;
#275 = FACE_OUTER_BOUND ( 'NONE', #159, .T. ) ;
#276 = AXIS2_PLACEMENT_3D ( 'NONE', #140, #169, #115 ) ;
#277 = EDGE_CURVE ( 'NONE', #211, #142, #356, .T. ) ;
#278 = ORIENTED_EDGE ( 'NONE', *, *, #346, .T. ) ;
#279 = EDGE_CURVE ( 'NONE', #142, #211, #194, .T. ) ;
#280 = ADVANCED_FACE ( 'NONE', ( #265 ), #268, .T. ) ;
#281 = DIRECTION ( 'NONE',  ( 0.000000000000000000, 0.000000000000000000, 1.000000000000000000 ) ) ;
#282 = AXIS2_PLACEMENT_3D ( 'NONE', #160, #298, #75 ) ;
#283 = ORIENTED_EDGE ( 'NONE', *, *, #220, .T. ) ;
#284 = VERTEX_POINT ( 'NONE', #240 ) ;
#285 = MECHANICAL_DESIGN_GEOMETRIC_PRESENTATION_REPRESENTATION (  '', ( #54 ), #3 ) ;
#286 = ORIENTED_EDGE ( 'NONE', *, *, #69, .F. ) ;
#287 = CARTESIAN_POINT ( 'NONE',  ( -12.98744628247324151, 0.000000000000000000, 0.4500000000000000111 ) ) ;
#288 = DIRECTION ( 'NONE',  ( 0.000000000000000000, 0.000000000000000000, 1.000000000000000000 ) ) ;
#289 = DIRECTION ( 'NONE',  ( -1.000000000000000000, 0.000000000000000000, 0.000000000000000000 ) ) ;
#290 = AXIS2_PLACEMENT_3D ( 'NONE', #55, #8, #260 ) ;
#291 = EDGE_CURVE ( 'NONE', #219, #243, #137, .T. ) ;
#292 = DIRECTION ( 'NONE',  ( -1.000000000000000000, 0.000000000000000000, 0.000000000000000000 ) ) ;
#293 =( LENGTH_UNIT ( ) NAMED_UNIT ( * ) SI_UNIT ( .MILLI., .METRE. ) );
#294 = CARTESIAN_POINT ( 'NONE',  ( 6.109008472635089504, 0.000000000000000000, 0.000000000000000000 ) ) ;
#295 = VECTOR ( 'NONE', #229, 1000.000000000000000 ) ;
#296 = EDGE_CURVE ( 'NONE', #284, #193, #228, .T. ) ;
#297 = DIRECTION ( 'NONE',  ( 0.000000000000000000, 0.000000000000000000, -1.000000000000000000 ) ) ;
#298 = DIRECTION ( 'NONE',  ( 0.000000000000000000, -1.000000000000000000, 0.000000000000000000 ) ) ;
#299 = PRESENTATION_LAYER_ASSIGNMENT (  '', '', ( #54 ) ) ;
#300 = FACE_OUTER_BOUND ( 'NONE', #48, .T. ) ;
#301 = ORIENTED_EDGE ( 'NONE', *, *, #93, .T. ) ;
#302 = VECTOR ( 'NONE', #347, 1000.000000000000000 ) ;
#303 = DIRECTION ( 'NONE',  ( -1.000000000000000000, 0.000000000000000000, 0.000000000000000000 ) ) ;
#304 = ORIENTED_EDGE ( 'NONE', *, *, #134, .F. ) ;
#305 =( GEOMETRIC_REPRESENTATION_CONTEXT ( 3 ) GLOBAL_UNCERTAINTY_ASSIGNED_CONTEXT ( ( #148 ) ) GLOBAL_UNIT_ASSIGNED_CONTEXT ( ( #293, #92, #202 ) ) REPRESENTATION_CONTEXT ( 'NONE', 'WORKASPACE' ) );
#306 = VERTEX_POINT ( 'NONE', #236 ) ;
#307 = ADVANCED_FACE ( 'NONE', ( #300 ), #111, .T. ) ;
#308 = CARTESIAN_POINT ( 'NONE',  ( 5.259008472635089859, 0.000000000000000000, 0.000000000000000000 ) ) ;
#309 = EDGE_LOOP ( 'NONE', ( #39, #363 ) ) ;
#310 = PRODUCT_DEFINITION_SHAPE ( 'NONE', 'NONE',  #5 ) ;
#311 = VERTEX_POINT ( 'NONE', #338 ) ;
#312 = CARTESIAN_POINT ( 'NONE',  ( 5.259008472635089859, 3.061616997868383018E-17, -0.2500000000000000000 ) ) ;
#313 = VERTEX_POINT ( 'NONE', #312 ) ;
#314 = DIRECTION ( 'NONE',  ( 0.000000000000000000, 1.000000000000000000, 0.000000000000000000 ) ) ;
#315 = AXIS2_PLACEMENT_3D ( 'NONE', #249, #131, #191 ) ;
#316 = VECTOR ( 'NONE', #30, 1000.000000000000000 ) ;
#317 = LINE ( 'NONE', #287, #86 ) ;
#318 = AXIS2_PLACEMENT_3D ( 'NONE', #15, #38, #17 ) ;
#319 = PRESENTATION_STYLE_ASSIGNMENT (( #204 ) ) ;
#320 = EDGE_CURVE ( 'NONE', #313, #311, #2, .T. ) ;
#321 = EDGE_CURVE ( 'NONE', #68, #306, #359, .T. ) ;
#322 = DIRECTION ( 'NONE',  ( 0.000000000000000000, 0.000000000000000000, 1.000000000000000000 ) ) ;
#323 = LINE ( 'NONE', #9, #295 ) ;
#324 = LINE ( 'NONE', #152, #345 ) ;
#325 = CARTESIAN_POINT ( 'NONE',  ( -12.98744628247324151, 0.000000000000000000, 0.000000000000000000 ) ) ;
#326 = CYLINDRICAL_SURFACE ( 'NONE', #133, 0.2500000000000000000 ) ;
#327 = AXIS2_PLACEMENT_3D ( 'NONE', #209, #186, #67 ) ;
#328 = ORIENTED_EDGE ( 'NONE', *, *, #122, .T. ) ;
#329 = DIRECTION ( 'NONE',  ( 0.000000000000000000, 0.000000000000000000, 1.000000000000000000 ) ) ;
#330 = ORIENTED_EDGE ( 'NONE', *, *, #250, .T. ) ;
#331 = AXIS2_PLACEMENT_3D ( 'NONE', #19, #78, #189 ) ;
#332 = CARTESIAN_POINT ( 'NONE',  ( 5.359008472635090392, 0.000000000000000000, -0.4149999999999999800 ) ) ;
#333 = DIRECTION ( 'NONE',  ( 0.000000000000000000, 0.000000000000000000, 1.000000000000000000 ) ) ;
#334 = EDGE_CURVE ( 'NONE', #107, #369, #201, .T. ) ;
#335 = ORIENTED_EDGE ( 'NONE', *, *, #291, .T. ) ;
#336 = DIRECTION ( 'NONE',  ( 0.000000000000000000, 0.000000000000000000, 1.000000000000000000 ) ) ;
#337 = ORIENTED_EDGE ( 'NONE', *, *, #296, .F. ) ;
#338 = CARTESIAN_POINT ( 'NONE',  ( 5.259008472635089859, 0.000000000000000000, 0.2500000000000000000 ) ) ;
#339 = FACE_OUTER_BOUND ( 'NONE', #216, .T. ) ;
#340 = DIRECTION ( 'NONE',  ( 1.000000000000000000, 0.000000000000000000, 0.000000000000000000 ) ) ;
#341 = EDGE_LOOP ( 'NONE', ( #101, #79, #168, #213 ) ) ;
#342 = DIRECTION ( 'NONE',  ( 0.000000000000000000, 0.000000000000000000, -1.000000000000000000 ) ) ;
#343 = ORIENTED_EDGE ( 'NONE', *, *, #291, .F. ) ;
#344 = DIRECTION ( 'NONE',  ( -1.000000000000000000, 0.000000000000000000, 0.000000000000000000 ) ) ;
#345 = VECTOR ( 'NONE', #242, 1000.000000000000000 ) ;
#346 = EDGE_CURVE ( 'NONE', #129, #235, #180, .T. ) ;
#347 = DIRECTION ( 'NONE',  ( -1.000000000000000000, 0.000000000000000000, 0.000000000000000000 ) ) ;
#348 = AXIS2_PLACEMENT_3D ( 'NONE', #210, #271, #329 ) ;
#349 = DIRECTION ( 'NONE',  ( -1.000000000000000000, 0.000000000000000000, 0.000000000000000000 ) ) ;
#350 = CARTESIAN_POINT ( 'NONE',  ( 5.259008472635089859, 4.469960816887839169E-17, 0.3150000000000000022 ) ) ;
#351 = CARTESIAN_POINT ( 'NONE',  ( 5.359008472635090392, 0.000000000000000000, 0.000000000000000000 ) ) ;
#352 = DIRECTION ( 'NONE',  ( -1.000000000000000000, 0.000000000000000000, 0.000000000000000000 ) ) ;
#353 = DIRECTION ( 'NONE',  ( 1.000000000000000000, 0.000000000000000000, 0.000000000000000000 ) ) ;
#354 = EDGE_LOOP ( 'NONE', ( #224, #371, #330, #337 ) ) ;
#355 = CARTESIAN_POINT ( 'NONE',  ( 5.359008472635090392, 0.000000000000000000, 0.000000000000000000 ) ) ;
#356 = CIRCLE ( 'NONE', #170, 0.4149999999999999800 ) ;
#357 = ORIENTED_EDGE ( 'NONE', *, *, #163, .F. ) ;
#358 = CARTESIAN_POINT ( 'NONE',  ( 5.479008472635090499, 0.000000000000000000, 0.000000000000000000 ) ) ;
#359 = CIRCLE ( 'NONE', #29, 0.2500000000000000000 ) ;
#360 = EDGE_CURVE ( 'NONE', #311, #313, #151, .T. ) ;
#361 = PRESENTATION_STYLE_ASSIGNMENT (( #245 ) ) ;
#362 = CIRCLE ( 'NONE', #198, 0.4500000000000000111 ) ;
#363 = ORIENTED_EDGE ( 'NONE', *, *, #225, .F. ) ;
#364 = PRESENTATION_LAYER_ASSIGNMENT (  '', '', ( #161 ) ) ;
#365 = FACE_OUTER_BOUND ( 'NONE', #42, .T. ) ;
#366 =( NAMED_UNIT ( * ) SI_UNIT ( $, .STERADIAN. ) SOLID_ANGLE_UNIT ( ) );
#367 = CYLINDRICAL_SURFACE ( 'NONE', #270, 0.4149999999999999800 ) ;
#368 = PRODUCT_CONTEXT ( 'NONE', #217, 'mechanical' ) ;
#369 = VERTEX_POINT ( 'NONE', #24 ) ;
#370 = AXIS2_PLACEMENT_3D ( 'NONE', #222, #85, #314 ) ;
#371 = ORIENTED_EDGE ( 'NONE', *, *, #175, .F. ) ;
#372 = AXIS2_PLACEMENT_3D ( 'NONE', #351, #353, #128 ) ;
ENDSEC;
END-ISO-10303-21;
