ISO-10303-21;
HEADER;
FILE_DESCRIPTION (( 'STEP AP214' ),
    '1' );
FILE_NAME ('UEBK-45347.STEP',
    '2019-07-19T11:52:29',
    ( '' ),
    ( '' ),
    'SwSTEP 2.0',
    'SolidWorks 2019',
    '' );
FILE_SCHEMA (( 'AUTOMOTIVE_DESIGN' ));
ENDSEC;

DATA;
#1 = DIRECTION ( 'NONE',  ( 1.000000000000000000, 3.061616997868384127E-16, -0.0000000000000000000 ) ) ;
#2 = CARTESIAN_POINT ( 'NONE',  ( 13.52499999999999858, 6.559514417933010050E-15, 0.0000000000000000000 ) ) ;
#3 = ORIENTED_EDGE ( 'NONE', *, *, #337, .T. ) ;
#4 = FACE_OUTER_BOUND ( 'NONE', #361, .T. ) ;
#5 = FILL_AREA_STYLE ('',( #117 ) ) ;
#6 = DIRECTION ( 'NONE',  ( 0.0000000000000000000, 1.000000000000000000, 0.0000000000000000000 ) ) ;
#7 = CARTESIAN_POINT ( 'NONE',  ( -15.50000000000000000, -2.326828918379970576E-15, 0.0000000000000000000 ) ) ;
#8 = AXIS2_PLACEMENT_3D ( 'NONE', #213, #317, #206 ) ;
#9 = DIRECTION ( 'NONE',  ( 0.0000000000000000000, -1.000000000000000000, 0.0000000000000000000 ) ) ;
#10 = PLANE ( 'NONE',  #149 ) ;
#11 = VERTEX_POINT ( 'NONE', #283 ) ;
#12 = ORIENTED_EDGE ( 'NONE', *, *, #258, .T. ) ;
#13 =( GEOMETRIC_REPRESENTATION_CONTEXT ( 3 ) GLOBAL_UNCERTAINTY_ASSIGNED_CONTEXT ( ( #333 ) ) GLOBAL_UNIT_ASSIGNED_CONTEXT ( ( #251, #109, #83 ) ) REPRESENTATION_CONTEXT ( 'NONE', 'WORKASPACE' ) );
#14 = ORIENTED_EDGE ( 'NONE', *, *, #358, .T. ) ;
#15 = UNCERTAINTY_MEASURE_WITH_UNIT (LENGTH_MEASURE( 1.000000000000000082E-05 ), #140, 'distance_accuracy_value', 'NONE');
#16 = VERTEX_POINT ( 'NONE', #314 ) ;
#17 = ADVANCED_FACE ( 'NONE', ( #125 ), #146, .T. ) ;
#18 =( NAMED_UNIT ( * ) SI_UNIT ( $, .STERADIAN. ) SOLID_ANGLE_UNIT ( ) );
#19 = ORIENTED_EDGE ( 'NONE', *, *, #41, .F. ) ;
#20 = PRODUCT_CONTEXT ( 'NONE', #197, 'mechanical' ) ;
#21 = ORIENTED_EDGE ( 'NONE', *, *, #325, .F. ) ;
#22 = ADVANCED_FACE ( 'NONE', ( #30 ), #355, .T. ) ;
#23 = CIRCLE ( 'NONE', #179, 2.999999999999994227 ) ;
#24 = EDGE_LOOP ( 'NONE', ( #247, #3, #80 ) ) ;
#25 = PRESENTATION_STYLE_ASSIGNMENT (( #284 ) ) ;
#26 = DIRECTION ( 'NONE',  ( 1.000000000000000000, 3.061616997868382648E-16, -0.0000000000000000000 ) ) ;
#27 = CIRCLE ( 'NONE', #217, 2.499999999999995115 ) ;
#28 = APPLICATION_CONTEXT ( 'automotive_design' ) ;
#29 = DIRECTION ( 'NONE',  ( 1.000000000000000000, 3.061616997868382648E-16, -0.0000000000000000000 ) ) ;
#30 = FACE_OUTER_BOUND ( 'NONE', #84, .T. ) ;
#31 = DIRECTION ( 'NONE',  ( 0.0000000000000000000, 1.000000000000000000, 0.0000000000000000000 ) ) ;
#32 = EDGE_CURVE ( 'NONE', #142, #139, #62, .T. ) ;
#33 = ADVANCED_BREP_SHAPE_REPRESENTATION ( 'UEBK-45347', ( #343, #173 ), #329 ) ;
#34 = DIRECTION ( 'NONE',  ( 1.000000000000000000, 3.061616997868382648E-16, -0.0000000000000000000 ) ) ;
#35 = CARTESIAN_POINT ( 'NONE',  ( -14.70000000000002238, -2.081899558550506591E-15, 0.0000000000000000000 ) ) ;
#36 = FACE_OUTER_BOUND ( 'NONE', #157, .T. ) ;
#37 = CARTESIAN_POINT ( 'NONE',  ( 15.50000000000000000, 2.500000000000002665, 0.0000000000000000000 ) ) ;
#38 = DIRECTION ( 'NONE',  ( -2.891205793294684243E-16, 1.000000000000000000, 0.0000000000000000000 ) ) ;
#39 = DIRECTION ( 'NONE',  ( 1.000000000000000000, 3.061616997868382648E-16, -0.0000000000000000000 ) ) ;
#40 = CYLINDRICAL_SURFACE ( 'NONE', #161, 2.999999999999995115 ) ;
#41 = EDGE_CURVE ( 'NONE', #189, #16, #221, .T. ) ;
#42 = CARTESIAN_POINT ( 'NONE',  ( 15.49999999999999822, 3.000000000000002665, 0.0000000000000000000 ) ) ;
#43 = DIRECTION ( 'NONE',  ( 1.000000000000000000, 3.061616997868382648E-16, -0.0000000000000000000 ) ) ;
#44 = CARTESIAN_POINT ( 'NONE',  ( -14.70000000000002238, -2.081899558550506591E-15, 0.0000000000000000000 ) ) ;
#45 = DIRECTION ( 'NONE',  ( 0.0000000000000000000, -1.000000000000000000, 0.0000000000000000000 ) ) ;
#46 = AXIS2_PLACEMENT_3D ( 'NONE', #89, #124, #153 ) ;
#47 = EDGE_LOOP ( 'NONE', ( #366, #306 ) ) ;
#48 = FACE_BOUND ( 'NONE', #164, .T. ) ;
#49 = ORIENTED_EDGE ( 'NONE', *, *, #56, .F. ) ;
#50 = EDGE_CURVE ( 'NONE', #64, #354, #193, .T. ) ;
#51 = ORIENTED_EDGE ( 'NONE', *, *, #203, .F. ) ;
#52 = AXIS2_PLACEMENT_3D ( 'NONE', #129, #1, #71 ) ;
#53 = ORIENTED_EDGE ( 'NONE', *, *, #114, .F. ) ;
#54 = ORIENTED_EDGE ( 'NONE', *, *, #374, .F. ) ;
#55 = DIRECTION ( 'NONE',  ( 1.000000000000000000, 3.061616997868384127E-16, -0.0000000000000000000 ) ) ;
#56 = EDGE_CURVE ( 'NONE', #330, #254, #291, .T. ) ;
#57 = PRODUCT_DEFINITION_CONTEXT ( 'detailed design', #28, 'design' ) ;
#58 = CIRCLE ( 'NONE', #116, 2.100000000000008082 ) ;
#59 = CIRCLE ( 'NONE', #181, 2.100000000000008082 ) ;
#60 = ADVANCED_FACE ( 'NONE', ( #259, #204 ), #268, .T. ) ;
#61 = CYLINDRICAL_SURFACE ( 'NONE', #107, 1.974999999999994094 ) ;
#62 = CIRCLE ( 'NONE', #308, 2.499999999999992450 ) ;
#63 = ADVANCED_FACE ( 'NONE', ( #201 ), #210, .T. ) ;
#64 = VERTEX_POINT ( 'NONE', #376 ) ;
#65 = FILL_AREA_STYLE_COLOUR ( '', #302 ) ;
#66 = SURFACE_SIDE_STYLE ('',( #288 ) ) ;
#67 = CARTESIAN_POINT ( 'NONE',  ( 13.52499999999999858, 6.559514417933010050E-15, 0.0000000000000000000 ) ) ;
#68 = DIRECTION ( 'NONE',  ( -2.891205793294684243E-16, 1.000000000000000000, 0.0000000000000000000 ) ) ;
#69 = DIRECTION ( 'NONE',  ( 1.000000000000000000, 3.061616997868382648E-16, -0.0000000000000000000 ) ) ;
#70 = DIRECTION ( 'NONE',  ( -1.000000000000000000, -3.061616997868382648E-16, 0.0000000000000000000 ) ) ;
#71 = DIRECTION ( 'NONE',  ( 0.0000000000000000000, 1.000000000000000000, 0.0000000000000000000 ) ) ;
#72 = SPHERICAL_SURFACE ( 'NONE', #328, 1.975000000000000089 ) ;
#73 = LINE ( 'NONE', #42, #85 ) ;
#74 = CARTESIAN_POINT ( 'NONE',  ( 15.50000000000000000, -1.974999999999986766, 2.418677428316015626E-16 ) ) ;
#75 = DIRECTION ( 'NONE',  ( 3.061616997868382648E-16, -1.000000000000000000, 0.0000000000000000000 ) ) ;
#76 = ORIENTED_EDGE ( 'NONE', *, *, #275, .T. ) ;
#77 = DIRECTION ( 'NONE',  ( 1.000000000000000000, 3.061616997868382648E-16, -0.0000000000000000000 ) ) ;
#78 = CIRCLE ( 'NONE', #200, 2.499999999999992450 ) ;
#79 = MECHANICAL_DESIGN_GEOMETRIC_PRESENTATION_REPRESENTATION (  '', ( #106 ), #13 ) ;
#80 = ORIENTED_EDGE ( 'NONE', *, *, #280, .F. ) ;
#81 = EDGE_CURVE ( 'NONE', #108, #11, #321, .T. ) ;
#82 = ORIENTED_EDGE ( 'NONE', *, *, #337, .F. ) ;
#83 =( NAMED_UNIT ( * ) SI_UNIT ( $, .STERADIAN. ) SOLID_ANGLE_UNIT ( ) );
#84 = EDGE_LOOP ( 'NONE', ( #51, #162, #12, #214 ) ) ;
#85 = VECTOR ( 'NONE', #177, 1000.000000000000000 ) ;
#86 = ORIENTED_EDGE ( 'NONE', *, *, #159, .T. ) ;
#87 =( GEOMETRIC_REPRESENTATION_CONTEXT ( 3 ) GLOBAL_UNCERTAINTY_ASSIGNED_CONTEXT ( ( #144 ) ) GLOBAL_UNIT_ASSIGNED_CONTEXT ( ( #147, #340, #237 ) ) REPRESENTATION_CONTEXT ( 'NONE', 'WORKASPACE' ) );
#88 = PRESENTATION_STYLE_ASSIGNMENT (( #226 ) ) ;
#89 = CARTESIAN_POINT ( 'NONE',  ( 13.52499999999999858, 6.559514417933010050E-15, 0.0000000000000000000 ) ) ;
#90 = DIRECTION ( 'NONE',  ( 1.000000000000000000, 3.061616997868382648E-16, -0.0000000000000000000 ) ) ;
#91 = EDGE_LOOP ( 'NONE', ( #76, #215 ) ) ;
#92 = CARTESIAN_POINT ( 'NONE',  ( 15.50000000000000000, 1.975000000000001421, 0.0000000000000000000 ) ) ;
#93 = CARTESIAN_POINT ( 'NONE',  ( 13.52499999999999858, 6.559514417933010050E-15, 0.0000000000000000000 ) ) ;
#94 = CARTESIAN_POINT ( 'NONE',  ( 4.500000000000000888, 3.796405077356795115E-15, 0.0000000000000000000 ) ) ;
#95 = DIRECTION ( 'NONE',  ( 1.000000000000000000, 3.061616997868382648E-16, -0.0000000000000000000 ) ) ;
#96 = DIRECTION ( 'NONE',  ( 3.061616997868382648E-16, -1.000000000000000000, 0.0000000000000000000 ) ) ;
#97 = FACE_OUTER_BOUND ( 'NONE', #305, .T. ) ;
#98 = AXIS2_PLACEMENT_3D ( 'NONE', #93, #316, #6 ) ;
#99 = CARTESIAN_POINT ( 'NONE',  ( -14.70000000000002238, -2.499999999999996891, 3.061616997868380676E-16 ) ) ;
#100 = ORIENTED_EDGE ( 'NONE', *, *, #203, .T. ) ;
#101 = DIRECTION ( 'NONE',  ( -4.391705002472939445E-16, 1.000000000000000000, 0.0000000000000000000 ) ) ;
#102 = ORIENTED_EDGE ( 'NONE', *, *, #325, .T. ) ;
#103 = FACE_OUTER_BOUND ( 'NONE', #277, .T. ) ;
#104 = EDGE_CURVE ( 'NONE', #105, #189, #73, .T. ) ;
#105 = VERTEX_POINT ( 'NONE', #313 ) ;
#106 = STYLED_ITEM ( 'NONE', ( #25 ), #33 ) ;
#107 = AXIS2_PLACEMENT_3D ( 'NONE', #175, #282, #31 ) ;
#108 = VERTEX_POINT ( 'NONE', #286 ) ;
#109 =( NAMED_UNIT ( * ) PLANE_ANGLE_UNIT ( ) SI_UNIT ( $, .RADIAN. ) );
#110 = VERTEX_POINT ( 'NONE', #123 ) ;
#111 = PRODUCT_DEFINITION ( 'UNKNOWN', '', #309, #57 ) ;
#112 = CIRCLE ( 'NONE', #46, 1.975000000000000977 ) ;
#113 = ORIENTED_EDGE ( 'NONE', *, *, #280, .T. ) ;
#114 = EDGE_CURVE ( 'NONE', #16, #189, #23, .T. ) ;
#115 = ORIENTED_EDGE ( 'NONE', *, *, #178, .F. ) ;
#116 = AXIS2_PLACEMENT_3D ( 'NONE', #176, #154, #243 ) ;
#117 = FILL_AREA_STYLE_COLOUR ( '', #304 ) ;
#118 = DIRECTION ( 'NONE',  ( 1.000000000000000000, 3.061616997868382648E-16, -0.0000000000000000000 ) ) ;
#119 = DIRECTION ( 'NONE',  ( -3.469446951953624543E-16, 1.000000000000000000, 0.0000000000000000000 ) ) ;
#120 = AXIS2_PLACEMENT_3D ( 'NONE', #285, #148, #375 ) ;
#121 = CARTESIAN_POINT ( 'NONE',  ( 13.52499999999999858, 1.975000000000000533, 0.0000000000000000000 ) ) ;
#122 = DIRECTION ( 'NONE',  ( 0.0000000000000000000, -0.0000000000000000000, 1.000000000000000000 ) ) ;
#123 = CARTESIAN_POINT ( 'NONE',  ( 4.500000000000003553, -2.999999999999992450, 3.673940397442054938E-16 ) ) ;
#124 = DIRECTION ( 'NONE',  ( -0.0000000000000000000, 0.0000000000000000000, -1.000000000000000000 ) ) ;
#125 = FACE_OUTER_BOUND ( 'NONE', #170, .T. ) ;
#126 = LINE ( 'NONE', #160, #242 ) ;
#127 = CARTESIAN_POINT ( 'NONE',  ( -15.50000000000000000, -2.100000000000010303, 2.816687638038913535E-16 ) ) ;
#128 = DIRECTION ( 'NONE',  ( 1.000000000000000000, 3.061616997868382648E-16, -0.0000000000000000000 ) ) ;
#129 = CARTESIAN_POINT ( 'NONE',  ( -14.70000000000002238, -2.081899558550506591E-15, 0.0000000000000000000 ) ) ;
#130 = AXIS2_PLACEMENT_3D ( 'NONE', #184, #131, #68 ) ;
#131 = DIRECTION ( 'NONE',  ( 1.000000000000000000, 3.061616997868382648E-16, -0.0000000000000000000 ) ) ;
#132 = CARTESIAN_POINT ( 'NONE',  ( 5.500000000000000000, 2.999999999999998668, 0.0000000000000000000 ) ) ;
#133 = PRODUCT ( 'UEBK-45347', 'UEBK-45347', '', ( #20 ) ) ;
#134 = EDGE_CURVE ( 'NONE', #108, #330, #58, .T. ) ;
#135 = ORIENTED_EDGE ( 'NONE', *, *, #50, .T. ) ;
#136 = EDGE_LOOP ( 'NONE', ( #82, #21, #113 ) ) ;
#137 = ORIENTED_EDGE ( 'NONE', *, *, #171, .T. ) ;
#138 = ORIENTED_EDGE ( 'NONE', *, *, #81, .T. ) ;
#139 = VERTEX_POINT ( 'NONE', #185 ) ;
#140 =( LENGTH_UNIT ( ) NAMED_UNIT ( * ) SI_UNIT ( .MILLI., .METRE. ) );
#141 = CIRCLE ( 'NONE', #255, 2.499999999999995115 ) ;
#142 = VERTEX_POINT ( 'NONE', #292 ) ;
#143 = EDGE_CURVE ( 'NONE', #254, #11, #27, .T. ) ;
#144 = UNCERTAINTY_MEASURE_WITH_UNIT (LENGTH_MEASURE( 1.000000000000000082E-05 ), #147, 'distance_accuracy_value', 'NONE');
#145 = PRESENTATION_LAYER_ASSIGNMENT (  '', '', ( #260 ) ) ;
#146 = CYLINDRICAL_SURFACE ( 'NONE', #8, 2.999999999999995115 ) ;
#147 =( LENGTH_UNIT ( ) NAMED_UNIT ( * ) SI_UNIT ( .MILLI., .METRE. ) );
#148 = DIRECTION ( 'NONE',  ( 0.0000000000000000000, -0.0000000000000000000, 1.000000000000000000 ) ) ;
#149 = AXIS2_PLACEMENT_3D ( 'NONE', #132, #43, #246 ) ;
#150 = DIRECTION ( 'NONE',  ( 0.0000000000000000000, 1.000000000000000000, 0.0000000000000000000 ) ) ;
#151 = AXIS2_PLACEMENT_3D ( 'NONE', #252, #55, #168 ) ;
#152 = DIRECTION ( 'NONE',  ( 1.000000000000000000, 3.061616997868384127E-16, -0.0000000000000000000 ) ) ;
#153 = DIRECTION ( 'NONE',  ( -1.000000000000000000, 0.0000000000000000000, 0.0000000000000000000 ) ) ;
#154 = DIRECTION ( 'NONE',  ( -1.000000000000000000, -3.061616997868382648E-16, 0.0000000000000000000 ) ) ;
#155 = DIRECTION ( 'NONE',  ( 1.000000000000000000, 3.061616997868382648E-16, -0.0000000000000000000 ) ) ;
#156 = DIRECTION ( 'NONE',  ( -3.749399456654643472E-32, 1.224646799147353207E-16, 1.000000000000000000 ) ) ;
#157 = EDGE_LOOP ( 'NONE', ( #360, #257, #331, #253 ) ) ;
#158 = DIRECTION ( 'NONE',  ( 1.000000000000000000, 3.061616997868384127E-16, -0.0000000000000000000 ) ) ;
#159 = EDGE_CURVE ( 'NONE', #11, #254, #141, .T. ) ;
#160 = CARTESIAN_POINT ( 'NONE',  ( 15.50000000000000178, -2.999999999999988010, 3.673940397442053952E-16 ) ) ;
#161 = AXIS2_PLACEMENT_3D ( 'NONE', #267, #90, #238 ) ;
#162 = ORIENTED_EDGE ( 'NONE', *, *, #143, .T. ) ;
#163 = ORIENTED_EDGE ( 'NONE', *, *, #222, .T. ) ;
#164 = EDGE_LOOP ( 'NONE', ( #223, #115 ) ) ;
#165 = DIRECTION ( 'NONE',  ( 0.0000000000000000000, 0.0000000000000000000, 1.000000000000000000 ) ) ;
#166 = ORIENTED_EDGE ( 'NONE', *, *, #104, .T. ) ;
#167 = CARTESIAN_POINT ( 'NONE',  ( 0.0000000000000000000, 0.0000000000000000000, 0.0000000000000000000 ) ) ;
#168 = DIRECTION ( 'NONE',  ( 0.0000000000000000000, 1.000000000000000000, 0.0000000000000000000 ) ) ;
#169 = SHAPE_DEFINITION_REPRESENTATION ( #191, #33 ) ;
#170 = EDGE_LOOP ( 'NONE', ( #219, #273, #166, #53 ) ) ;
#171 = EDGE_CURVE ( 'NONE', #110, #16, #126, .T. ) ;
#172 = CLOSED_SHELL ( 'NONE', ( #368, #307, #248, #190, #295, #60, #17, #196, #348, #63, #22, #300, #227 ) ) ;
#173 = AXIS2_PLACEMENT_3D ( 'NONE', #167, #165, #332 ) ;
#174 = AXIS2_PLACEMENT_3D ( 'NONE', #371, #118, #353 ) ;
#175 = CARTESIAN_POINT ( 'NONE',  ( 15.50000000000000000, 7.164183775012015633E-15, 0.0000000000000000000 ) ) ;
#176 = CARTESIAN_POINT ( 'NONE',  ( -15.50000000000000000, -2.326828918379970576E-15, 0.0000000000000000000 ) ) ;
#177 = DIRECTION ( 'NONE',  ( 1.000000000000000000, 3.061616997868382648E-16, -0.0000000000000000000 ) ) ;
#178 = EDGE_CURVE ( 'NONE', #276, #186, #209, .T. ) ;
#179 = AXIS2_PLACEMENT_3D ( 'NONE', #235, #128, #38 ) ;
#180 = DIRECTION ( 'NONE',  ( -1.000000000000000000, -3.061616997868382648E-16, 0.0000000000000000000 ) ) ;
#181 = AXIS2_PLACEMENT_3D ( 'NONE', #234, #315, #205 ) ;
#182 = LINE ( 'NONE', #74, #250 ) ;
#183 = CYLINDRICAL_SURFACE ( 'NONE', #174, 2.499999999999995115 ) ;
#184 = CARTESIAN_POINT ( 'NONE',  ( 5.500000000000001776, 4.102566777143633774E-15, 0.0000000000000000000 ) ) ;
#185 = CARTESIAN_POINT ( 'NONE',  ( 4.500000000000000000, 2.499999999999996003, 0.0000000000000000000 ) ) ;
#186 = VERTEX_POINT ( 'NONE', #272 ) ;
#187 = CARTESIAN_POINT ( 'NONE',  ( 15.50000000000000000, -2.499999999999988010, 3.061616997868377225E-16 ) ) ;
#188 = VECTOR ( 'NONE', #245, 1000.000000000000227 ) ;
#189 = VERTEX_POINT ( 'NONE', #240 ) ;
#190 = ADVANCED_FACE ( 'NONE', ( #97 ), #264, .T. ) ;
#191 = PRODUCT_DEFINITION_SHAPE ( 'NONE', 'NONE',  #111 ) ;
#192 = EDGE_LOOP ( 'NONE', ( #301, #218, #298, #102 ) ) ;
#193 = CIRCLE ( 'NONE', #334, 1.974999999999994094 ) ;
#194 = ORIENTED_EDGE ( 'NONE', *, *, #275, .F. ) ;
#195 = APPLICATION_PROTOCOL_DEFINITION ( 'draft international standard', 'automotive_design', 1998, #28 ) ;
#196 = ADVANCED_FACE ( 'NONE', ( #324, #48 ), #10, .T. ) ;
#197 = APPLICATION_CONTEXT ( 'automotive_design' ) ;
#198 = CIRCLE ( 'NONE', #363, 1.975000000000000089 ) ;
#199 = EDGE_CURVE ( 'NONE', #276, #64, #182, .T. ) ;
#200 = AXIS2_PLACEMENT_3D ( 'NONE', #344, #29, #228 ) ;
#201 = FACE_OUTER_BOUND ( 'NONE', #249, .T. ) ;
#202 = FACE_OUTER_BOUND ( 'NONE', #136, .T. ) ;
#203 = EDGE_CURVE ( 'NONE', #254, #142, #244, .T. ) ;
#204 = FACE_OUTER_BOUND ( 'NONE', #326, .T. ) ;
#205 = DIRECTION ( 'NONE',  ( 0.0000000000000000000, -1.000000000000000000, 0.0000000000000000000 ) ) ;
#206 = DIRECTION ( 'NONE',  ( -5.782411586589366513E-16, 1.000000000000000000, 0.0000000000000000000 ) ) ;
#207 = SURFACE_STYLE_FILL_AREA ( #281 ) ;
#208 = FACE_OUTER_BOUND ( 'NONE', #338, .T. ) ;
#209 = CIRCLE ( 'NONE', #216, 1.974999999999995426 ) ;
#210 = PLANE ( 'NONE',  #373 ) ;
#211 = CARTESIAN_POINT ( 'NONE',  ( 4.500000000000002665, 3.796405077356795904E-15, 0.0000000000000000000 ) ) ;
#212 = DIRECTION ( 'NONE',  ( 1.000000000000000000, 3.061616997868382648E-16, -0.0000000000000000000 ) ) ;
#213 = CARTESIAN_POINT ( 'NONE',  ( 15.50000000000000000, 7.164183775012015633E-15, 0.0000000000000000000 ) ) ;
#214 = ORIENTED_EDGE ( 'NONE', *, *, #32, .F. ) ;
#215 = ORIENTED_EDGE ( 'NONE', *, *, #32, .T. ) ;
#216 = AXIS2_PLACEMENT_3D ( 'NONE', #293, #39, #290 ) ;
#217 = AXIS2_PLACEMENT_3D ( 'NONE', #44, #158, #9 ) ;
#218 = ORIENTED_EDGE ( 'NONE', *, *, #178, .T. ) ;
#219 = ORIENTED_EDGE ( 'NONE', *, *, #171, .F. ) ;
#220 = ORIENTED_EDGE ( 'NONE', *, *, #199, .T. ) ;
#221 = CIRCLE ( 'NONE', #130, 2.999999999999994227 ) ;
#222 = EDGE_CURVE ( 'NONE', #186, #276, #224, .T. ) ;
#223 = ORIENTED_EDGE ( 'NONE', *, *, #222, .F. ) ;
#224 = CIRCLE ( 'NONE', #357, 1.974999999999995426 ) ;
#225 = AXIS2_PLACEMENT_3D ( 'NONE', #362, #26, #256 ) ;
#226 = SURFACE_STYLE_USAGE ( .BOTH. , #370 ) ;
#227 = ADVANCED_FACE ( 'NONE', ( #4 ), #342, .T. ) ;
#228 = DIRECTION ( 'NONE',  ( -3.469446951953624543E-16, 1.000000000000000000, 0.0000000000000000000 ) ) ;
#229 = EDGE_CURVE ( 'NONE', #110, #105, #278, .T. ) ;
#230 = LINE ( 'NONE', #37, #231 ) ;
#231 = VECTOR ( 'NONE', #212, 1000.000000000000000 ) ;
#232 = CIRCLE ( 'NONE', #225, 2.999999999999995559 ) ;
#233 = VERTEX_POINT ( 'NONE', #356 ) ;
#234 = CARTESIAN_POINT ( 'NONE',  ( -15.50000000000000000, -2.326828918379970576E-15, 0.0000000000000000000 ) ) ;
#235 = CARTESIAN_POINT ( 'NONE',  ( 5.500000000000001776, 4.102566777143633774E-15, 0.0000000000000000000 ) ) ;
#236 = DIRECTION ( 'NONE',  ( 0.0000000000000000000, 1.000000000000000000, 0.0000000000000000000 ) ) ;
#237 =( NAMED_UNIT ( * ) SI_UNIT ( $, .STERADIAN. ) SOLID_ANGLE_UNIT ( ) );
#238 = DIRECTION ( 'NONE',  ( -5.782411586589366513E-16, 1.000000000000000000, 0.0000000000000000000 ) ) ;
#239 = DIRECTION ( 'NONE',  ( 0.0000000000000000000, 1.000000000000000000, 0.0000000000000000000 ) ) ;
#240 = CARTESIAN_POINT ( 'NONE',  ( 5.500000000000000888, 2.999999999999998224, 0.0000000000000000000 ) ) ;
#241 = DIRECTION ( 'NONE',  ( 0.0000000000000000000, -1.000000000000000000, 1.224646799147353207E-16 ) ) ;
#242 = VECTOR ( 'NONE', #327, 1000.000000000000000 ) ;
#243 = DIRECTION ( 'NONE',  ( 0.0000000000000000000, -1.000000000000000000, 0.0000000000000000000 ) ) ;
#244 = LINE ( 'NONE', #187, #287 ) ;
#245 = DIRECTION ( 'NONE',  ( 0.8944271909999169656, -0.4472135954999557073, 5.476786982642001592E-17 ) ) ;
#246 = DIRECTION ( 'NONE',  ( -3.061616997868382648E-16, 1.000000000000000000, 0.0000000000000000000 ) ) ;
#247 = ORIENTED_EDGE ( 'NONE', *, *, #50, .F. ) ;
#248 = ADVANCED_FACE ( 'NONE', ( #103 ), #183, .T. ) ;
#249 = EDGE_LOOP ( 'NONE', ( #345, #14 ) ) ;
#250 = VECTOR ( 'NONE', #155, 1000.000000000000000 ) ;
#251 =( LENGTH_UNIT ( ) NAMED_UNIT ( * ) SI_UNIT ( .MILLI., .METRE. ) );
#252 = CARTESIAN_POINT ( 'NONE',  ( -14.70000000000002238, -2.081899558550506591E-15, 0.0000000000000000000 ) ) ;
#253 = ORIENTED_EDGE ( 'NONE', *, *, #81, .F. ) ;
#254 = VERTEX_POINT ( 'NONE', #99 ) ;
#255 = AXIS2_PLACEMENT_3D ( 'NONE', #35, #152, #45 ) ;
#256 = DIRECTION ( 'NONE',  ( -2.891205793294682764E-16, 1.000000000000000000, 0.0000000000000000000 ) ) ;
#257 = ORIENTED_EDGE ( 'NONE', *, *, #56, .T. ) ;
#258 = EDGE_CURVE ( 'NONE', #11, #139, #230, .T. ) ;
#259 = FACE_BOUND ( 'NONE', #91, .T. ) ;
#260 = STYLED_ITEM ( 'NONE', ( #88 ), #343 ) ;
#261 = CARTESIAN_POINT ( 'NONE',  ( 5.500000000000000888, -1.974999999999991429, 2.418677428316018584E-16 ) ) ;
#262 = CONICAL_SURFACE ( 'NONE', #151, 2.499999999999995115, 0.4636476090008039286 ) ;
#263 = DIRECTION ( 'NONE',  ( 1.000000000000000000, 3.061616997868382648E-16, -0.0000000000000000000 ) ) ;
#264 = CYLINDRICAL_SURFACE ( 'NONE', #319, 1.974999999999994094 ) ;
#265 = CARTESIAN_POINT ( 'NONE',  ( 4.500000000000000888, 2.499999999999996003, 0.0000000000000000000 ) ) ;
#266 = DIRECTION ( 'NONE',  ( 1.000000000000000000, 3.061616997868382648E-16, -0.0000000000000000000 ) ) ;
#267 = CARTESIAN_POINT ( 'NONE',  ( 15.50000000000000000, 7.164183775012015633E-15, 0.0000000000000000000 ) ) ;
#268 = PLANE ( 'NONE',  #339 ) ;
#269 = DIRECTION ( 'NONE',  ( 1.000000000000000000, 3.061616997868382648E-16, -0.0000000000000000000 ) ) ;
#270 = AXIS2_PLACEMENT_3D ( 'NONE', #211, #95, #297 ) ;
#271 = CARTESIAN_POINT ( 'NONE',  ( -14.70000000000002238, 2.499999999999992895, 0.0000000000000000000 ) ) ;
#272 = CARTESIAN_POINT ( 'NONE',  ( 5.499999999999999112, 1.974999999999999423, 0.0000000000000000000 ) ) ;
#273 = ORIENTED_EDGE ( 'NONE', *, *, #229, .T. ) ;
#274 = CARTESIAN_POINT ( 'NONE',  ( 5.500000000000000000, 4.102566777143633774E-15, 0.0000000000000000000 ) ) ;
#275 = EDGE_CURVE ( 'NONE', #139, #142, #78, .T. ) ;
#276 = VERTEX_POINT ( 'NONE', #261 ) ;
#277 = EDGE_LOOP ( 'NONE', ( #86, #100, #194, #303 ) ) ;
#278 = CIRCLE ( 'NONE', #270, 2.999999999999995559 ) ;
#279 = ORIENTED_EDGE ( 'NONE', *, *, #229, .F. ) ;
#280 = EDGE_CURVE ( 'NONE', #354, #233, #112, .T. ) ;
#281 = FILL_AREA_STYLE ('',( #65 ) ) ;
#282 = DIRECTION ( 'NONE',  ( 1.000000000000000000, 3.061616997868382648E-16, -0.0000000000000000000 ) ) ;
#283 = CARTESIAN_POINT ( 'NONE',  ( -14.70000000000002238, 2.499999999999992895, 0.0000000000000000000 ) ) ;
#284 = SURFACE_STYLE_USAGE ( .BOTH. , #66 ) ;
#285 = CARTESIAN_POINT ( 'NONE',  ( 13.52499999999999858, 6.559514417933010050E-15, 0.0000000000000000000 ) ) ;
#286 = CARTESIAN_POINT ( 'NONE',  ( -15.50000000000000000, 2.100000000000005862, 0.0000000000000000000 ) ) ;
#287 = VECTOR ( 'NONE', #269, 1000.000000000000000 ) ;
#288 = SURFACE_STYLE_FILL_AREA ( #5 ) ;
#289 = CARTESIAN_POINT ( 'NONE',  ( 13.52499999999999858, 6.559514417933010050E-15, 0.0000000000000000000 ) ) ;
#290 = DIRECTION ( 'NONE',  ( -4.391705002472939445E-16, 1.000000000000000000, 0.0000000000000000000 ) ) ;
#291 = LINE ( 'NONE', #351, #188 ) ;
#292 = CARTESIAN_POINT ( 'NONE',  ( 4.500000000000001776, -2.499999999999988454, 3.061616997868375253E-16 ) ) ;
#293 = CARTESIAN_POINT ( 'NONE',  ( 5.500000000000000000, 4.102566777143633774E-15, 0.0000000000000000000 ) ) ;
#294 = AXIS2_PLACEMENT_3D ( 'NONE', #349, #34, #150 ) ;
#295 = ADVANCED_FACE ( 'NONE', ( #208 ), #40, .T. ) ;
#296 = VECTOR ( 'NONE', #69, 1000.000000000000000 ) ;
#297 = DIRECTION ( 'NONE',  ( -2.891205793294682764E-16, 1.000000000000000000, 0.0000000000000000000 ) ) ;
#298 = ORIENTED_EDGE ( 'NONE', *, *, #365, .T. ) ;
#299 = ORIENTED_EDGE ( 'NONE', *, *, #374, .T. ) ;
#300 = ADVANCED_FACE ( 'NONE', ( #202 ), #350, .T. ) ;
#301 = ORIENTED_EDGE ( 'NONE', *, *, #199, .F. ) ;
#302 = COLOUR_RGB ( '',0.9686274509803921573, 0.8784313725490195957, 0.5999999999999999778 ) ;
#303 = ORIENTED_EDGE ( 'NONE', *, *, #258, .F. ) ;
#304 = COLOUR_RGB ( '',0.9686274509803921573, 0.8784313725490195957, 0.5999999999999999778 ) ;
#305 = EDGE_LOOP ( 'NONE', ( #163, #220, #135, #364 ) ) ;
#306 = ORIENTED_EDGE ( 'NONE', *, *, #114, .T. ) ;
#307 = ADVANCED_FACE ( 'NONE', ( #320 ), #72, .T. ) ;
#308 = AXIS2_PLACEMENT_3D ( 'NONE', #94, #263, #119 ) ;
#309 = PRODUCT_DEFINITION_FORMATION_WITH_SPECIFIED_SOURCE ( 'ANY', '', #133, .NOT_KNOWN. ) ;
#310 = FACE_OUTER_BOUND ( 'NONE', #192, .T. ) ;
#311 = CIRCLE ( 'NONE', #98, 1.974999999999994094 ) ;
#312 = PRESENTATION_LAYER_ASSIGNMENT (  '', '', ( #106 ) ) ;
#313 = CARTESIAN_POINT ( 'NONE',  ( 4.500000000000001776, 2.999999999999999556, 0.0000000000000000000 ) ) ;
#314 = CARTESIAN_POINT ( 'NONE',  ( 5.500000000000002665, -2.999999999999990674, 3.673940397442053459E-16 ) ) ;
#315 = DIRECTION ( 'NONE',  ( -1.000000000000000000, -3.061616997868382648E-16, 0.0000000000000000000 ) ) ;
#316 = DIRECTION ( 'NONE',  ( -1.000000000000000000, -3.061616997868382648E-16, 0.0000000000000000000 ) ) ;
#317 = DIRECTION ( 'NONE',  ( 1.000000000000000000, 3.061616997868382648E-16, -0.0000000000000000000 ) ) ;
#318 = CARTESIAN_POINT ( 'NONE',  ( 15.50000000000000000, 7.164183775012015633E-15, 0.0000000000000000000 ) ) ;
#319 = AXIS2_PLACEMENT_3D ( 'NONE', #318, #77, #236 ) ;
#320 = FACE_OUTER_BOUND ( 'NONE', #24, .T. ) ;
#321 = LINE ( 'NONE', #271, #369 ) ;
#322 = PRODUCT_RELATED_PRODUCT_CATEGORY ( 'part', '', ( #133 ) ) ;
#323 = DIRECTION ( 'NONE',  ( -1.000000000000000000, -3.061616997868382648E-16, 0.0000000000000000000 ) ) ;
#324 = FACE_OUTER_BOUND ( 'NONE', #47, .T. ) ;
#325 = EDGE_CURVE ( 'NONE', #354, #64, #311, .T. ) ;
#326 = EDGE_LOOP ( 'NONE', ( #54, #279 ) ) ;
#327 = DIRECTION ( 'NONE',  ( 1.000000000000000000, 3.061616997868382648E-16, -0.0000000000000000000 ) ) ;
#328 = AXIS2_PLACEMENT_3D ( 'NONE', #67, #122, #347 ) ;
#329 =( GEOMETRIC_REPRESENTATION_CONTEXT ( 3 ) GLOBAL_UNCERTAINTY_ASSIGNED_CONTEXT ( ( #15 ) ) GLOBAL_UNIT_ASSIGNED_CONTEXT ( ( #140, #341, #18 ) ) REPRESENTATION_CONTEXT ( 'NONE', 'WORKASPACE' ) );
#330 = VERTEX_POINT ( 'NONE', #127 ) ;
#331 = ORIENTED_EDGE ( 'NONE', *, *, #159, .F. ) ;
#332 = DIRECTION ( 'NONE',  ( 1.000000000000000000, 0.0000000000000000000, 0.0000000000000000000 ) ) ;
#333 = UNCERTAINTY_MEASURE_WITH_UNIT (LENGTH_MEASURE( 1.000000000000000082E-05 ), #251, 'distance_accuracy_value', 'NONE');
#334 = AXIS2_PLACEMENT_3D ( 'NONE', #289, #323, #239 ) ;
#335 = ORIENTED_EDGE ( 'NONE', *, *, #134, .F. ) ;
#336 = APPLICATION_PROTOCOL_DEFINITION ( 'draft international standard', 'automotive_design', 1998, #197 ) ;
#337 = EDGE_CURVE ( 'NONE', #64, #233, #198, .T. ) ;
#338 = EDGE_LOOP ( 'NONE', ( #299, #137, #19, #367 ) ) ;
#339 = AXIS2_PLACEMENT_3D ( 'NONE', #265, #180, #96 ) ;
#340 =( NAMED_UNIT ( * ) PLANE_ANGLE_UNIT ( ) SI_UNIT ( $, .RADIAN. ) );
#341 =( NAMED_UNIT ( * ) PLANE_ANGLE_UNIT ( ) SI_UNIT ( $, .RADIAN. ) );
#342 = CONICAL_SURFACE ( 'NONE', #52, 2.499999999999995115, 0.4636476090008039286 ) ;
#343 = MANIFOLD_SOLID_BREP ( 'Fase1', #172 ) ;
#344 = CARTESIAN_POINT ( 'NONE',  ( 4.500000000000000888, 3.796405077356795115E-15, 0.0000000000000000000 ) ) ;
#345 = ORIENTED_EDGE ( 'NONE', *, *, #134, .T. ) ;
#346 = LINE ( 'NONE', #92, #296 ) ;
#347 = DIRECTION ( 'NONE',  ( 0.0000000000000000000, 1.000000000000000000, 0.0000000000000000000 ) ) ;
#348 = ADVANCED_FACE ( 'NONE', ( #310 ), #61, .T. ) ;
#349 = CARTESIAN_POINT ( 'NONE',  ( 15.50000000000000000, 7.164183775012015633E-15, 0.0000000000000000000 ) ) ;
#350 = SPHERICAL_SURFACE ( 'NONE', #120, 1.975000000000000089 ) ;
#351 = CARTESIAN_POINT ( 'NONE',  ( -14.70000000000002238, -2.499999999999997335, 3.061616997868376732E-16 ) ) ;
#352 = MECHANICAL_DESIGN_GEOMETRIC_PRESENTATION_REPRESENTATION (  '', ( #260 ), #87 ) ;
#353 = DIRECTION ( 'NONE',  ( 0.0000000000000000000, 1.000000000000000000, 0.0000000000000000000 ) ) ;
#354 = VERTEX_POINT ( 'NONE', #121 ) ;
#355 = CYLINDRICAL_SURFACE ( 'NONE', #294, 2.499999999999995115 ) ;
#356 = CARTESIAN_POINT ( 'NONE',  ( 15.50000000000000000, 7.285117646427816908E-15, 0.0000000000000000000 ) ) ;
#357 = AXIS2_PLACEMENT_3D ( 'NONE', #274, #266, #101 ) ;
#358 = EDGE_CURVE ( 'NONE', #330, #108, #59, .T. ) ;
#359 = ORIENTED_EDGE ( 'NONE', *, *, #143, .F. ) ;
#360 = ORIENTED_EDGE ( 'NONE', *, *, #358, .F. ) ;
#361 = EDGE_LOOP ( 'NONE', ( #49, #335, #138, #359 ) ) ;
#362 = CARTESIAN_POINT ( 'NONE',  ( 4.500000000000002665, 3.796405077356795904E-15, 0.0000000000000000000 ) ) ;
#363 = AXIS2_PLACEMENT_3D ( 'NONE', #2, #156, #241 ) ;
#364 = ORIENTED_EDGE ( 'NONE', *, *, #365, .F. ) ;
#365 = EDGE_CURVE ( 'NONE', #186, #354, #346, .T. ) ;
#366 = ORIENTED_EDGE ( 'NONE', *, *, #41, .T. ) ;
#367 = ORIENTED_EDGE ( 'NONE', *, *, #104, .F. ) ;
#368 = ADVANCED_FACE ( 'NONE', ( #36 ), #262, .T. ) ;
#369 = VECTOR ( 'NONE', #372, 1000.000000000000227 ) ;
#370 = SURFACE_SIDE_STYLE ('',( #207 ) ) ;
#371 = CARTESIAN_POINT ( 'NONE',  ( 15.50000000000000000, 7.164183775012015633E-15, 0.0000000000000000000 ) ) ;
#372 = DIRECTION ( 'NONE',  ( 0.8944271909999166326, 0.4472135954999563179, 0.0000000000000000000 ) ) ;
#373 = AXIS2_PLACEMENT_3D ( 'NONE', #7, #70, #75 ) ;
#374 = EDGE_CURVE ( 'NONE', #105, #110, #232, .T. ) ;
#375 = DIRECTION ( 'NONE',  ( 0.0000000000000000000, 1.000000000000000000, 0.0000000000000000000 ) ) ;
#376 = CARTESIAN_POINT ( 'NONE',  ( 13.52499999999999858, -1.974999999999987654, 2.418677428316015626E-16 ) ) ;
ENDSEC;
END-ISO-10303-21;
