ISO-10303-21;
HEADER;
FILE_DESCRIPTION (( 'STEP AP214' ),
    '1' );
FILE_NAME ('IF-PI-8.3-2.0.STEP',
    '2020-06-04T08:39:37',
    ( '' ),
    ( '' ),
    'SwSTEP 2.0',
    'SolidWorks 2020',
    '' );
FILE_SCHEMA (( 'AUTOMOTIVE_DESIGN' ));
ENDSEC;

DATA;
#1 = SHAPE_DEFINITION_REPRESENTATION ( #108, #200 ) ;
#2 = VERTEX_POINT ( 'NONE', #176 ) ;
#3 =( LENGTH_UNIT ( ) NAMED_UNIT ( * ) SI_UNIT ( .MILLI., .METRE. ) );
#4 = AXIS2_PLACEMENT_3D ( 'NONE', #97, #132, #9 ) ;
#5 = EDGE_CURVE ( 'NONE', #23, #92, #119, .T. ) ;
#6 = MECHANICAL_DESIGN_GEOMETRIC_PRESENTATION_REPRESENTATION (  '', ( #101 ), #133 ) ;
#7 = ORIENTED_EDGE ( 'NONE', *, *, #5, .F. ) ;
#8 = CARTESIAN_POINT ( 'NONE',  ( -1.000000000000000000, 0.0000000000000000000, -8.300000000000000711 ) ) ;
#9 = DIRECTION ( 'NONE',  ( -1.000000000000000000, 0.0000000000000000000, 7.837606066160273715E-17 ) ) ;
#10 = AXIS2_PLACEMENT_3D ( 'NONE', #91, #177, #32 ) ;
#11 = CARTESIAN_POINT ( 'NONE',  ( 9.629649721936179265E-32, 0.0000000000000000000, 0.0000000000000000000 ) ) ;
#12 = ADVANCED_FACE ( 'NONE', ( #207 ), #143, .T. ) ;
#13 = CARTESIAN_POINT ( 'NONE',  ( 0.7850000000000000311, 9.613477373306726041E-17, -6.152520761935815402E-17 ) ) ;
#14 = DIRECTION ( 'NONE',  ( -7.837606066160273715E-17, -0.0000000000000000000, -1.000000000000000000 ) ) ;
#15 = ORIENTED_EDGE ( 'NONE', *, *, #58, .F. ) ;
#16 = UNCERTAINTY_MEASURE_WITH_UNIT (LENGTH_MEASURE( 1.000000000000000082E-05 ), #3, 'distance_accuracy_value', 'NONE');
#17 = ADVANCED_FACE ( 'NONE', ( #209 ), #173, .T. ) ;
#18 = FILL_AREA_STYLE ('',( #70 ) ) ;
#19 = AXIS2_PLACEMENT_3D ( 'NONE', #214, #167, #128 ) ;
#20 = VERTEX_POINT ( 'NONE', #102 ) ;
#21 = PRODUCT_DEFINITION_CONTEXT ( 'detailed design', #189, 'design' ) ;
#22 = CIRCLE ( 'NONE', #49, 0.9999999999999991118 ) ;
#23 = VERTEX_POINT ( 'NONE', #8 ) ;
#24 = SURFACE_STYLE_FILL_AREA ( #175 ) ;
#25 = PRESENTATION_STYLE_ASSIGNMENT (( #140 ) ) ;
#26 = CARTESIAN_POINT ( 'NONE',  ( -6.505213034913026604E-16, 0.0000000000000000000, -8.300000000000000711 ) ) ;
#27 = DIRECTION ( 'NONE',  ( -1.000000000000000000, 0.0000000000000000000, 0.0000000000000000000 ) ) ;
#28 = PRESENTATION_LAYER_ASSIGNMENT (  '', '', ( #109 ) ) ;
#29 = ORIENTED_EDGE ( 'NONE', *, *, #46, .F. ) ;
#30 = CARTESIAN_POINT ( 'NONE',  ( -6.270084852928217986E-16, 0.0000000000000000000, -8.000000000000000000 ) ) ;
#31 = MANIFOLD_SOLID_BREP ( 'Rotation1', #148 ) ;
#32 = DIRECTION ( 'NONE',  ( -1.000000000000000000, 0.0000000000000000000, 0.0000000000000000000 ) ) ;
#33 = DIRECTION ( 'NONE',  ( -7.837606066160273715E-17, 0.0000000000000000000, -1.000000000000000000 ) ) ;
#34 = APPLICATION_CONTEXT ( 'automotive_design' ) ;
#35 = LINE ( 'NONE', #68, #139 ) ;
#36 = PLANE ( 'NONE',  #187 ) ;
#37 = AXIS2_PLACEMENT_3D ( 'NONE', #59, #159, #192 ) ;
#38 =( LENGTH_UNIT ( ) NAMED_UNIT ( * ) SI_UNIT ( .MILLI., .METRE. ) );
#39 = ORIENTED_EDGE ( 'NONE', *, *, #82, .T. ) ;
#40 = ADVANCED_FACE ( 'NONE', ( #103 ), #57, .T. ) ;
#41 = PRODUCT_CONTEXT ( 'NONE', #34, 'mechanical' ) ;
#42 = ORIENTED_EDGE ( 'NONE', *, *, #136, .T. ) ;
#43 = UNCERTAINTY_MEASURE_WITH_UNIT (LENGTH_MEASURE( 1.000000000000000082E-05 ), #131, 'distance_accuracy_value', 'NONE');
#44 = CARTESIAN_POINT ( 'NONE',  ( 0.0000000000000000000, 0.0000000000000000000, 0.0000000000000000000 ) ) ;
#45 = DIRECTION ( 'NONE',  ( 7.837606066160273715E-17, 0.0000000000000000000, 1.000000000000000000 ) ) ;
#46 = EDGE_CURVE ( 'NONE', #179, #2, #152, .T. ) ;
#47 = PRESENTATION_STYLE_ASSIGNMENT (( #76 ) ) ;
#48 = FILL_AREA_STYLE_COLOUR ( '', #80 ) ;
#49 = AXIS2_PLACEMENT_3D ( 'NONE', #30, #14, #94 ) ;
#50 = CARTESIAN_POINT ( 'NONE',  ( -6.505213034913026604E-16, 0.0000000000000000000, -8.300000000000000711 ) ) ;
#51 = PLANE ( 'NONE',  #52 ) ;
#52 = AXIS2_PLACEMENT_3D ( 'NONE', #107, #33, #181 ) ;
#53 = EDGE_CURVE ( 'NONE', #190, #2, #180, .T. ) ;
#54 = DIRECTION ( 'NONE',  ( -7.837606066160273715E-17, -0.0000000000000000000, -1.000000000000000000 ) ) ;
#55 = CARTESIAN_POINT ( 'NONE',  ( -0.7850000000000000311, 0.0000000000000000000, 6.152520761935815402E-17 ) ) ;
#56 = VECTOR ( 'NONE', #96, 1000.000000000000000 ) ;
#57 = CYLINDRICAL_SURFACE ( 'NONE', #137, 0.7849999999999996980 ) ;
#58 = EDGE_CURVE ( 'NONE', #2, #179, #178, .T. ) ;
#59 = CARTESIAN_POINT ( 'NONE',  ( -6.505213034913026604E-16, 0.0000000000000000000, -8.300000000000000711 ) ) ;
#60 = PRODUCT_DEFINITION_FORMATION_WITH_SPECIFIED_SOURCE ( 'ANY', '', #123, .NOT_KNOWN. ) ;
#61 = ORIENTED_EDGE ( 'NONE', *, *, #111, .F. ) ;
#62 = PRODUCT_DEFINITION ( 'UNKNOWN', '', #60, #21 ) ;
#63 = ORIENTED_EDGE ( 'NONE', *, *, #124, .F. ) ;
#64 = DIRECTION ( 'NONE',  ( -1.000000000000000000, 0.0000000000000000000, 7.837606066160273715E-17 ) ) ;
#65 = CIRCLE ( 'NONE', #195, 0.9999999999999993339 ) ;
#66 = CARTESIAN_POINT ( 'NONE',  ( 0.9999999999999986677, 1.224646799147352468E-16, -8.300000000000000711 ) ) ;
#67 = CARTESIAN_POINT ( 'NONE',  ( -0.9999999999999997780, 0.0000000000000000000, -8.300000000000000711 ) ) ;
#68 = CARTESIAN_POINT ( 'NONE',  ( 0.7849999999999990319, 9.613477373306718646E-17, -8.300000000000000711 ) ) ;
#69 = LINE ( 'NONE', #151, #105 ) ;
#70 = FILL_AREA_STYLE_COLOUR ( '', #88 ) ;
#71 = ORIENTED_EDGE ( 'NONE', *, *, #5, .T. ) ;
#72 = AXIS2_PLACEMENT_3D ( 'NONE', #163, #89, #126 ) ;
#73 = ORIENTED_EDGE ( 'NONE', *, *, #53, .T. ) ;
#74 = ORIENTED_EDGE ( 'NONE', *, *, #111, .T. ) ;
#75 = CIRCLE ( 'NONE', #127, 0.7850000000000000311 ) ;
#76 = SURFACE_STYLE_USAGE ( .BOTH. , #194 ) ;
#77 = EDGE_CURVE ( 'NONE', #190, #155, #75, .T. ) ;
#78 = EDGE_LOOP ( 'NONE', ( #206, #219, #15, #114 ) ) ;
#79 = DIRECTION ( 'NONE',  ( -1.000000000000000000, 0.0000000000000000000, 0.0000000000000000000 ) ) ;
#80 = COLOUR_RGB ( '',0.9686274509803921573, 0.8784313725490195957, 0.5999999999999999778 ) ;
#81 = FACE_OUTER_BOUND ( 'NONE', #86, .T. ) ;
#82 = EDGE_CURVE ( 'NONE', #20, #23, #165, .T. ) ;
#83 = DIRECTION ( 'NONE',  ( -7.837606066160273715E-17, -0.0000000000000000000, -1.000000000000000000 ) ) ;
#84 = CARTESIAN_POINT ( 'NONE',  ( -6.505213034913026604E-16, 0.0000000000000000000, -8.300000000000000711 ) ) ;
#85 = CYLINDRICAL_SURFACE ( 'NONE', #115, 0.7849999999999996980 ) ;
#86 = EDGE_LOOP ( 'NONE', ( #42, #74, #7, #161 ) ) ;
#87 = ORIENTED_EDGE ( 'NONE', *, *, #136, .F. ) ;
#88 = COLOUR_RGB ( '',0.9686274509803921573, 0.8784313725490195957, 0.5999999999999999778 ) ;
#89 = DIRECTION ( 'NONE',  ( -7.837606066160273715E-17, -0.0000000000000000000, -1.000000000000000000 ) ) ;
#90 = EDGE_LOOP ( 'NONE', ( #87, #220 ) ) ;
#91 = CARTESIAN_POINT ( 'NONE',  ( -6.270084852928217986E-16, 0.0000000000000000000, -8.000000000000000000 ) ) ;
#92 = VERTEX_POINT ( 'NONE', #66 ) ;
#93 = ORIENTED_EDGE ( 'NONE', *, *, #129, .F. ) ;
#94 = DIRECTION ( 'NONE',  ( -1.000000000000000000, 0.0000000000000000000, 0.0000000000000000000 ) ) ;
#95 = DIRECTION ( 'NONE',  ( -7.837606066160273715E-17, -0.0000000000000000000, -1.000000000000000000 ) ) ;
#96 = DIRECTION ( 'NONE',  ( -7.837606066160273715E-17, -0.0000000000000000000, -1.000000000000000000 ) ) ;
#97 = CARTESIAN_POINT ( 'NONE',  ( 9.629649721936179265E-32, 0.0000000000000000000, 0.0000000000000000000 ) ) ;
#98 = FACE_OUTER_BOUND ( 'NONE', #138, .T. ) ;
#99 = AXIS2_PLACEMENT_3D ( 'NONE', #84, #106, #166 ) ;
#100 =( GEOMETRIC_REPRESENTATION_CONTEXT ( 3 ) GLOBAL_UNCERTAINTY_ASSIGNED_CONTEXT ( ( #16 ) ) GLOBAL_UNIT_ASSIGNED_CONTEXT ( ( #3, #211, #147 ) ) REPRESENTATION_CONTEXT ( 'NONE', 'WORKASPACE' ) );
#101 = STYLED_ITEM ( 'NONE', ( #25 ), #200 ) ;
#102 = CARTESIAN_POINT ( 'NONE',  ( -0.9999999999999997780, 0.0000000000000000000, -8.000000000000000000 ) ) ;
#103 = FACE_OUTER_BOUND ( 'NONE', #78, .T. ) ;
#104 = UNCERTAINTY_MEASURE_WITH_UNIT (LENGTH_MEASURE( 1.000000000000000082E-05 ), #38, 'distance_accuracy_value', 'NONE');
#105 = VECTOR ( 'NONE', #197, 1000.000000000000000 ) ;
#106 = DIRECTION ( 'NONE',  ( -7.837606066160273715E-17, -0.0000000000000000000, -1.000000000000000000 ) ) ;
#107 = CARTESIAN_POINT ( 'NONE',  ( -1.000000000000000000, 0.0000000000000000000, -8.300000000000000711 ) ) ;
#108 = PRODUCT_DEFINITION_SHAPE ( 'NONE', 'NONE',  #62 ) ;
#109 = STYLED_ITEM ( 'NONE', ( #47 ), #31 ) ;
#110 =( NAMED_UNIT ( * ) PLANE_ANGLE_UNIT ( ) SI_UNIT ( $, .RADIAN. ) );
#111 = EDGE_CURVE ( 'NONE', #117, #92, #69, .T. ) ;
#112 = FACE_OUTER_BOUND ( 'NONE', #157, .T. ) ;
#113 = FACE_BOUND ( 'NONE', #160, .T. ) ;
#114 = ORIENTED_EDGE ( 'NONE', *, *, #53, .F. ) ;
#115 = AXIS2_PLACEMENT_3D ( 'NONE', #50, #169, #130 ) ;
#116 = ADVANCED_FACE ( 'NONE', ( #112 ), #85, .T. ) ;
#117 = VERTEX_POINT ( 'NONE', #134 ) ;
#118 = ORIENTED_EDGE ( 'NONE', *, *, #124, .T. ) ;
#119 = CIRCLE ( 'NONE', #37, 0.9999999999999993339 ) ;
#120 = ORIENTED_EDGE ( 'NONE', *, *, #77, .F. ) ;
#121 =( NAMED_UNIT ( * ) PLANE_ANGLE_UNIT ( ) SI_UNIT ( $, .RADIAN. ) );
#122 = ORIENTED_EDGE ( 'NONE', *, *, #46, .T. ) ;
#123 = PRODUCT ( 'IF-PI-8.3-2.0', 'IF-PI-8.3-2.0', '', ( #41 ) ) ;
#124 = EDGE_CURVE ( 'NONE', #92, #23, #65, .T. ) ;
#125 = EDGE_LOOP ( 'NONE', ( #120, #141 ) ) ;
#126 = DIRECTION ( 'NONE',  ( -1.000000000000000000, 0.0000000000000000000, 0.0000000000000000000 ) ) ;
#127 = AXIS2_PLACEMENT_3D ( 'NONE', #11, #54, #64 ) ;
#128 = DIRECTION ( 'NONE',  ( -1.000000000000000000, 0.0000000000000000000, 0.0000000000000000000 ) ) ;
#129 = EDGE_CURVE ( 'NONE', #155, #179, #35, .T. ) ;
#130 = DIRECTION ( 'NONE',  ( -1.000000000000000000, 0.0000000000000000000, 0.0000000000000000000 ) ) ;
#131 =( LENGTH_UNIT ( ) NAMED_UNIT ( * ) SI_UNIT ( .MILLI., .METRE. ) );
#132 = DIRECTION ( 'NONE',  ( -7.837606066160273715E-17, -0.0000000000000000000, -1.000000000000000000 ) ) ;
#133 =( GEOMETRIC_REPRESENTATION_CONTEXT ( 3 ) GLOBAL_UNCERTAINTY_ASSIGNED_CONTEXT ( ( #104 ) ) GLOBAL_UNIT_ASSIGNED_CONTEXT ( ( #38, #121, #186 ) ) REPRESENTATION_CONTEXT ( 'NONE', 'WORKASPACE' ) );
#134 = CARTESIAN_POINT ( 'NONE',  ( 0.9999999999999985567, 1.224646799147352221E-16, -8.000000000000000000 ) ) ;
#135 = DIRECTION ( 'NONE',  ( 1.000000000000000000, 0.0000000000000000000, 0.0000000000000000000 ) ) ;
#136 = EDGE_CURVE ( 'NONE', #20, #117, #22, .T. ) ;
#137 = AXIS2_PLACEMENT_3D ( 'NONE', #26, #146, #27 ) ;
#138 = EDGE_LOOP ( 'NONE', ( #71, #118 ) ) ;
#139 = VECTOR ( 'NONE', #215, 1000.000000000000000 ) ;
#140 = SURFACE_STYLE_USAGE ( .BOTH. , #185 ) ;
#141 = ORIENTED_EDGE ( 'NONE', *, *, #154, .F. ) ;
#142 = SURFACE_STYLE_FILL_AREA ( #18 ) ;
#143 = PLANE ( 'NONE',  #174 ) ;
#144 = AXIS2_PLACEMENT_3D ( 'NONE', #153, #95, #79 ) ;
#145 = ORIENTED_EDGE ( 'NONE', *, *, #170, .T. ) ;
#146 = DIRECTION ( 'NONE',  ( -7.837606066160273715E-17, -0.0000000000000000000, -1.000000000000000000 ) ) ;
#147 =( NAMED_UNIT ( * ) SI_UNIT ( $, .STERADIAN. ) SOLID_ANGLE_UNIT ( ) );
#148 = CLOSED_SHELL ( 'NONE', ( #156, #40, #12, #116, #202, #17, #217 ) ) ;
#149 = CARTESIAN_POINT ( 'NONE',  ( -0.7850000000000000311, 0.0000000000000000000, -8.000000000000000000 ) ) ;
#150 = DIRECTION ( 'NONE',  ( 7.837606066160273715E-17, 0.0000000000000000000, 1.000000000000000000 ) ) ;
#151 = CARTESIAN_POINT ( 'NONE',  ( 0.9999999999999985567, 1.224646799147352221E-16, -8.300000000000000711 ) ) ;
#152 = CIRCLE ( 'NONE', #10, 0.7849999999999993650 ) ;
#153 = CARTESIAN_POINT ( 'NONE',  ( -6.270084852928217986E-16, 0.0000000000000000000, -8.000000000000000000 ) ) ;
#154 = EDGE_CURVE ( 'NONE', #155, #190, #210, .T. ) ;
#155 = VERTEX_POINT ( 'NONE', #13 ) ;
#156 = ADVANCED_FACE ( 'NONE', ( #81 ), #201, .T. ) ;
#157 = EDGE_LOOP ( 'NONE', ( #93, #172, #73, #29 ) ) ;
#158 = AXIS2_PLACEMENT_3D ( 'NONE', #44, #204, #135 ) ;
#159 = DIRECTION ( 'NONE',  ( -7.837606066160273715E-17, -0.0000000000000000000, -1.000000000000000000 ) ) ;
#160 = EDGE_LOOP ( 'NONE', ( #188, #122 ) ) ;
#161 = ORIENTED_EDGE ( 'NONE', *, *, #82, .F. ) ;
#162 = MECHANICAL_DESIGN_GEOMETRIC_PRESENTATION_REPRESENTATION (  '', ( #109 ), #100 ) ;
#163 = CARTESIAN_POINT ( 'NONE',  ( -6.505213034913026604E-16, 0.0000000000000000000, -8.300000000000000711 ) ) ;
#164 = DIRECTION ( 'NONE',  ( 1.000000000000000000, 0.0000000000000000000, -7.837606066160273715E-17 ) ) ;
#165 = LINE ( 'NONE', #67, #205 ) ;
#166 = DIRECTION ( 'NONE',  ( -1.000000000000000000, 0.0000000000000000000, 0.0000000000000000000 ) ) ;
#167 = DIRECTION ( 'NONE',  ( -7.837606066160273715E-17, -0.0000000000000000000, -1.000000000000000000 ) ) ;
#168 = CARTESIAN_POINT ( 'NONE',  ( -6.505213034913026604E-16, 0.0000000000000000000, -8.300000000000000711 ) ) ;
#169 = DIRECTION ( 'NONE',  ( -7.837606066160273715E-17, -0.0000000000000000000, -1.000000000000000000 ) ) ;
#170 = EDGE_CURVE ( 'NONE', #117, #20, #218, .T. ) ;
#171 = APPLICATION_PROTOCOL_DEFINITION ( 'draft international standard', 'automotive_design', 1998, #34 ) ;
#172 = ORIENTED_EDGE ( 'NONE', *, *, #154, .T. ) ;
#173 = CYLINDRICAL_SURFACE ( 'NONE', #72, 0.9999999999999991118 ) ;
#174 = AXIS2_PLACEMENT_3D ( 'NONE', #193, #45, #164 ) ;
#175 = FILL_AREA_STYLE ('',( #48 ) ) ;
#176 = CARTESIAN_POINT ( 'NONE',  ( -0.7850000000000000311, 0.0000000000000000000, -8.000000000000000000 ) ) ;
#177 = DIRECTION ( 'NONE',  ( -7.837606066160273715E-17, -0.0000000000000000000, -1.000000000000000000 ) ) ;
#178 = CIRCLE ( 'NONE', #19, 0.7849999999999993650 ) ;
#179 = VERTEX_POINT ( 'NONE', #203 ) ;
#180 = LINE ( 'NONE', #183, #56 ) ;
#181 = DIRECTION ( 'NONE',  ( -1.000000000000000000, 0.0000000000000000000, 7.837606066160273715E-17 ) ) ;
#182 = PRODUCT_RELATED_PRODUCT_CATEGORY ( 'part', '', ( #123 ) ) ;
#183 = CARTESIAN_POINT ( 'NONE',  ( -0.7850000000000003642, 0.0000000000000000000, -8.300000000000000711 ) ) ;
#184 = FACE_OUTER_BOUND ( 'NONE', #90, .T. ) ;
#185 = SURFACE_SIDE_STYLE ('',( #142 ) ) ;
#186 =( NAMED_UNIT ( * ) SI_UNIT ( $, .STERADIAN. ) SOLID_ANGLE_UNIT ( ) );
#187 = AXIS2_PLACEMENT_3D ( 'NONE', #149, #150, #213 ) ;
#188 = ORIENTED_EDGE ( 'NONE', *, *, #58, .T. ) ;
#189 = APPLICATION_CONTEXT ( 'automotive_design' ) ;
#190 = VERTEX_POINT ( 'NONE', #55 ) ;
#191 =( NAMED_UNIT ( * ) SI_UNIT ( $, .STERADIAN. ) SOLID_ANGLE_UNIT ( ) );
#192 = DIRECTION ( 'NONE',  ( -1.000000000000000000, 0.0000000000000000000, 0.0000000000000000000 ) ) ;
#193 = CARTESIAN_POINT ( 'NONE',  ( -2.411051702296258841E-33, 0.0000000000000000000, -3.076260380967907701E-17 ) ) ;
#194 = SURFACE_SIDE_STYLE ('',( #24 ) ) ;
#195 = AXIS2_PLACEMENT_3D ( 'NONE', #168, #83, #198 ) ;
#196 = PRESENTATION_LAYER_ASSIGNMENT (  '', '', ( #101 ) ) ;
#197 = DIRECTION ( 'NONE',  ( -7.837606066160273715E-17, -0.0000000000000000000, -1.000000000000000000 ) ) ;
#198 = DIRECTION ( 'NONE',  ( -1.000000000000000000, 0.0000000000000000000, 0.0000000000000000000 ) ) ;
#199 =( GEOMETRIC_REPRESENTATION_CONTEXT ( 3 ) GLOBAL_UNCERTAINTY_ASSIGNED_CONTEXT ( ( #43 ) ) GLOBAL_UNIT_ASSIGNED_CONTEXT ( ( #131, #110, #191 ) ) REPRESENTATION_CONTEXT ( 'NONE', 'WORKASPACE' ) );
#200 = ADVANCED_BREP_SHAPE_REPRESENTATION ( 'IF-PI-8.3-2.0', ( #31, #158 ), #199 ) ;
#201 = CYLINDRICAL_SURFACE ( 'NONE', #99, 0.9999999999999991118 ) ;
#202 = ADVANCED_FACE ( 'NONE', ( #113, #184 ), #36, .T. ) ;
#203 = CARTESIAN_POINT ( 'NONE',  ( 0.7849999999999986988, 9.613477373306717413E-17, -8.000000000000000000 ) ) ;
#204 = DIRECTION ( 'NONE',  ( 0.0000000000000000000, 0.0000000000000000000, 1.000000000000000000 ) ) ;
#205 = VECTOR ( 'NONE', #212, 1000.000000000000000 ) ;
#206 = ORIENTED_EDGE ( 'NONE', *, *, #77, .T. ) ;
#207 = FACE_OUTER_BOUND ( 'NONE', #125, .T. ) ;
#208 = APPLICATION_PROTOCOL_DEFINITION ( 'draft international standard', 'automotive_design', 1998, #189 ) ;
#209 = FACE_OUTER_BOUND ( 'NONE', #216, .T. ) ;
#210 = CIRCLE ( 'NONE', #4, 0.7850000000000000311 ) ;
#211 =( NAMED_UNIT ( * ) PLANE_ANGLE_UNIT ( ) SI_UNIT ( $, .RADIAN. ) );
#212 = DIRECTION ( 'NONE',  ( -7.837606066160273715E-17, -0.0000000000000000000, -1.000000000000000000 ) ) ;
#213 = DIRECTION ( 'NONE',  ( 1.000000000000000000, 0.0000000000000000000, -7.837606066160273715E-17 ) ) ;
#214 = CARTESIAN_POINT ( 'NONE',  ( -6.270084852928217986E-16, 0.0000000000000000000, -8.000000000000000000 ) ) ;
#215 = DIRECTION ( 'NONE',  ( -7.837606066160273715E-17, -0.0000000000000000000, -1.000000000000000000 ) ) ;
#216 = EDGE_LOOP ( 'NONE', ( #61, #145, #39, #63 ) ) ;
#217 = ADVANCED_FACE ( 'NONE', ( #98 ), #51, .T. ) ;
#218 = CIRCLE ( 'NONE', #144, 0.9999999999999991118 ) ;
#219 = ORIENTED_EDGE ( 'NONE', *, *, #129, .T. ) ;
#220 = ORIENTED_EDGE ( 'NONE', *, *, #170, .F. ) ;
ENDSEC;
END-ISO-10303-21;
