ISO-10303-21;
HEADER;
FILE_DESCRIPTION (( 'STEP AP214' ),
    '1' );
FILE_NAME ('IF-PI-3.20-2.03.STEP',
    '2020-06-04T08:01:21',
    ( '' ),
    ( '' ),
    'SwSTEP 2.0',
    'SolidWorks 2020',
    '' );
FILE_SCHEMA (( 'AUTOMOTIVE_DESIGN' ));
ENDSEC;

DATA;
#1 = DIRECTION ( 'NONE',  ( 1.000000000000000000, 0.0000000000000000000, 0.0000000000000000000 ) ) ;
#2 = DIRECTION ( 'NONE',  ( 1.000000000000000000, -0.0000000000000000000, -0.0000000000000000000 ) ) ;
#3 = ORIENTED_EDGE ( 'NONE', *, *, #18, .T. ) ;
#4 = EDGE_CURVE ( 'NONE', #28, #149, #75, .T. ) ;
#5 = CYLINDRICAL_SURFACE ( 'NONE', #53, 0.7874999999999995337 ) ;
#6 = ORIENTED_EDGE ( 'NONE', *, *, #64, .F. ) ;
#7 = DIRECTION ( 'NONE',  ( 0.0000000000000000000, 0.0000000000000000000, 1.000000000000000000 ) ) ;
#8 = ORIENTED_EDGE ( 'NONE', *, *, #4, .F. ) ;
#9 = LINE ( 'NONE', #210, #29 ) ;
#10 = DIRECTION ( 'NONE',  ( 1.000000000000000000, -0.0000000000000000000, -0.0000000000000000000 ) ) ;
#11 = DIRECTION ( 'NONE',  ( -1.000000000000000000, 0.0000000000000000000, 0.0000000000000000000 ) ) ;
#12 = DIRECTION ( 'NONE',  ( 1.000000000000000000, -0.0000000000000000000, -0.0000000000000000000 ) ) ;
#13 = PRODUCT_DEFINITION_SHAPE ( 'NONE', 'NONE',  #32 ) ;
#14 = ORIENTED_EDGE ( 'NONE', *, *, #4, .T. ) ;
#15 = FACE_OUTER_BOUND ( 'NONE', #65, .T. ) ;
#16 = PLANE ( 'NONE',  #136 ) ;
#17 =( NAMED_UNIT ( * ) SI_UNIT ( $, .STERADIAN. ) SOLID_ANGLE_UNIT ( ) );
#18 = EDGE_CURVE ( 'NONE', #144, #83, #71, .T. ) ;
#19 = VECTOR ( 'NONE', #55, 1000.000000000000000 ) ;
#20 = EDGE_CURVE ( 'NONE', #149, #28, #162, .T. ) ;
#21 = AXIS2_PLACEMENT_3D ( 'NONE', #190, #10, #82 ) ;
#22 =( GEOMETRIC_REPRESENTATION_CONTEXT ( 3 ) GLOBAL_UNCERTAINTY_ASSIGNED_CONTEXT ( ( #119 ) ) GLOBAL_UNIT_ASSIGNED_CONTEXT ( ( #36, #183, #17 ) ) REPRESENTATION_CONTEXT ( 'NONE', 'WORKASPACE' ) );
#23 = ORIENTED_EDGE ( 'NONE', *, *, #45, .T. ) ;
#24 = ORIENTED_EDGE ( 'NONE', *, *, #49, .T. ) ;
#25 = PRODUCT ( 'IF-PI-3.20-2.03', 'IF-PI-3.20-2.03', '', ( #220 ) ) ;
#26 = EDGE_LOOP ( 'NONE', ( #134, #8 ) ) ;
#27 = DIRECTION ( 'NONE',  ( 0.0000000000000000000, 0.0000000000000000000, 1.000000000000000000 ) ) ;
#28 = VERTEX_POINT ( 'NONE', #109 ) ;
#29 = VECTOR ( 'NONE', #167, 1000.000000000000000 ) ;
#30 =( LENGTH_UNIT ( ) NAMED_UNIT ( * ) SI_UNIT ( .MILLI., .METRE. ) );
#31 = SURFACE_STYLE_USAGE ( .BOTH. , #189 ) ;
#32 = PRODUCT_DEFINITION ( 'UNKNOWN', '', #168, #146 ) ;
#33 = DIRECTION ( 'NONE',  ( 1.000000000000000000, 0.0000000000000000000, -0.0000000000000000000 ) ) ;
#34 = CARTESIAN_POINT ( 'NONE',  ( 1.600000000000000311, 0.0000000000000000000, 0.0000000000000000000 ) ) ;
#35 = DIRECTION ( 'NONE',  ( 0.0000000000000000000, 0.0000000000000000000, 1.000000000000000000 ) ) ;
#36 =( LENGTH_UNIT ( ) NAMED_UNIT ( * ) SI_UNIT ( .MILLI., .METRE. ) );
#37 = CARTESIAN_POINT ( 'NONE',  ( 1.599999999999999867, 0.0000000000000000000, 0.0000000000000000000 ) ) ;
#38 = DIRECTION ( 'NONE',  ( 0.0000000000000000000, 0.0000000000000000000, -1.000000000000000000 ) ) ;
#39 = MANIFOLD_SOLID_BREP ( 'Rotation1', #105 ) ;
#40 = CIRCLE ( 'NONE', #63, 0.7874999999999995337 ) ;
#41 = ORIENTED_EDGE ( 'NONE', *, *, #64, .T. ) ;
#42 = STYLED_ITEM ( 'NONE', ( #163 ), #39 ) ;
#43 = SURFACE_STYLE_FILL_AREA ( #122 ) ;
#44 = DIRECTION ( 'NONE',  ( 0.0000000000000000000, 0.0000000000000000000, -1.000000000000000000 ) ) ;
#45 = EDGE_CURVE ( 'NONE', #137, #187, #85, .T. ) ;
#46 = ORIENTED_EDGE ( 'NONE', *, *, #79, .T. ) ;
#47 = DIRECTION ( 'NONE',  ( 1.000000000000000000, -0.0000000000000000000, -0.0000000000000000000 ) ) ;
#48 = DIRECTION ( 'NONE',  ( 0.0000000000000000000, 0.0000000000000000000, -1.000000000000000000 ) ) ;
#49 = EDGE_CURVE ( 'NONE', #83, #144, #88, .T. ) ;
#50 = DIRECTION ( 'NONE',  ( 0.0000000000000000000, 0.0000000000000000000, -1.000000000000000000 ) ) ;
#51 = FILL_AREA_STYLE_COLOUR ( '', #97 ) ;
#52 = DIRECTION ( 'NONE',  ( 1.000000000000000000, -0.0000000000000000000, -0.0000000000000000000 ) ) ;
#53 = AXIS2_PLACEMENT_3D ( 'NONE', #203, #154, #69 ) ;
#54 = AXIS2_PLACEMENT_3D ( 'NONE', #178, #35, #1 ) ;
#55 = DIRECTION ( 'NONE',  ( 1.000000000000000000, -0.0000000000000000000, -0.0000000000000000000 ) ) ;
#56 = CARTESIAN_POINT ( 'NONE',  ( -1.600000000000000311, 9.644093543285401792E-17, 0.7874999999999995337 ) ) ;
#57 = EDGE_CURVE ( 'NONE', #114, #155, #40, .T. ) ;
#58 = ORIENTED_EDGE ( 'NONE', *, *, #215, .T. ) ;
#59 =( LENGTH_UNIT ( ) NAMED_UNIT ( * ) SI_UNIT ( .MILLI., .METRE. ) );
#60 = ORIENTED_EDGE ( 'NONE', *, *, #117, .F. ) ;
#61 = ORIENTED_EDGE ( 'NONE', *, *, #92, .T. ) ;
#62 = DIRECTION ( 'NONE',  ( 0.0000000000000000000, 0.0000000000000000000, -1.000000000000000000 ) ) ;
#63 = AXIS2_PLACEMENT_3D ( 'NONE', #139, #213, #48 ) ;
#64 = EDGE_CURVE ( 'NONE', #28, #137, #125, .T. ) ;
#65 = EDGE_LOOP ( 'NONE', ( #216, #201, #58, #204 ) ) ;
#66 =( GEOMETRIC_REPRESENTATION_CONTEXT ( 3 ) GLOBAL_UNCERTAINTY_ASSIGNED_CONTEXT ( ( #72 ) ) GLOBAL_UNIT_ASSIGNED_CONTEXT ( ( #59, #78, #176 ) ) REPRESENTATION_CONTEXT ( 'NONE', 'WORKASPACE' ) );
#67 = LINE ( 'NONE', #126, #186 ) ;
#68 = CYLINDRICAL_SURFACE ( 'NONE', #202, 0.7874999999999995337 ) ;
#69 = DIRECTION ( 'NONE',  ( 0.0000000000000000000, 0.0000000000000000000, -1.000000000000000000 ) ) ;
#70 = APPLICATION_PROTOCOL_DEFINITION ( 'draft international standard', 'automotive_design', 1998, #142 ) ;
#71 = CIRCLE ( 'NONE', #81, 0.7874999999999995337 ) ;
#72 = UNCERTAINTY_MEASURE_WITH_UNIT (LENGTH_MEASURE( 1.000000000000000082E-05 ), #59, 'distance_accuracy_value', 'NONE');
#73 = ORIENTED_EDGE ( 'NONE', *, *, #117, .T. ) ;
#74 = CARTESIAN_POINT ( 'NONE',  ( 1.600000000000000311, 0.0000000000000000000, 0.0000000000000000000 ) ) ;
#75 = CIRCLE ( 'NONE', #194, 1.014999999999999902 ) ;
#76 = FACE_OUTER_BOUND ( 'NONE', #26, .T. ) ;
#77 = EDGE_LOOP ( 'NONE', ( #6, #14, #73, #147 ) ) ;
#78 =( NAMED_UNIT ( * ) PLANE_ANGLE_UNIT ( ) SI_UNIT ( $, .RADIAN. ) );
#79 = EDGE_CURVE ( 'NONE', #114, #144, #67, .T. ) ;
#80 = DIRECTION ( 'NONE',  ( 0.0000000000000000000, 0.0000000000000000000, -1.000000000000000000 ) ) ;
#81 = AXIS2_PLACEMENT_3D ( 'NONE', #127, #193, #62 ) ;
#82 = DIRECTION ( 'NONE',  ( 0.0000000000000000000, 0.0000000000000000000, -1.000000000000000000 ) ) ;
#83 = VERTEX_POINT ( 'NONE', #116 ) ;
#84 = FILL_AREA_STYLE ('',( #51 ) ) ;
#85 = CIRCLE ( 'NONE', #148, 1.014999999999999902 ) ;
#86 = DIRECTION ( 'NONE',  ( 0.0000000000000000000, 0.0000000000000000000, -1.000000000000000000 ) ) ;
#87 = SURFACE_STYLE_USAGE ( .BOTH. , #191 ) ;
#88 = CIRCLE ( 'NONE', #206, 0.7874999999999995337 ) ;
#89 = CARTESIAN_POINT ( 'NONE',  ( -1.600000000000000311, 0.0000000000000000000, -0.7874999999999995337 ) ) ;
#90 = ORIENTED_EDGE ( 'NONE', *, *, #49, .F. ) ;
#91 = ORIENTED_EDGE ( 'NONE', *, *, #160, .F. ) ;
#92 = EDGE_CURVE ( 'NONE', #155, #114, #115, .T. ) ;
#93 = CARTESIAN_POINT ( 'NONE',  ( 1.419999999999999929, 0.0000000000000000000, 0.0000000000000000000 ) ) ;
#94 = DIRECTION ( 'NONE',  ( 1.000000000000000000, -0.0000000000000000000, -0.0000000000000000000 ) ) ;
#95 = AXIS2_PLACEMENT_3D ( 'NONE', #121, #11, #7 ) ;
#96 = EDGE_LOOP ( 'NONE', ( #24, #3 ) ) ;
#97 = COLOUR_RGB ( '',0.9686274509803921573, 0.8784313725490195957, 0.5999999999999999778 ) ;
#98 = ADVANCED_FACE ( 'NONE', ( #100 ), #16, .T. ) ;
#99 = CARTESIAN_POINT ( 'NONE',  ( 1.600000000000000311, 0.0000000000000000000, -1.014999999999999902 ) ) ;
#100 = FACE_OUTER_BOUND ( 'NONE', #157, .T. ) ;
#101 = AXIS2_PLACEMENT_3D ( 'NONE', #175, #52, #50 ) ;
#102 = FACE_OUTER_BOUND ( 'NONE', #138, .T. ) ;
#103 = ADVANCED_FACE ( 'NONE', ( #102 ), #179, .T. ) ;
#104 = PRESENTATION_LAYER_ASSIGNMENT (  '', '', ( #42 ) ) ;
#105 = CLOSED_SHELL ( 'NONE', ( #103, #165, #180, #133, #185, #171, #98 ) ) ;
#106 = PLANE ( 'NONE',  #120 ) ;
#107 = EDGE_LOOP ( 'NONE', ( #135, #174 ) ) ;
#108 = FACE_OUTER_BOUND ( 'NONE', #107, .T. ) ;
#109 = CARTESIAN_POINT ( 'NONE',  ( 1.419999999999999929, 1.243016501134563341E-16, 1.014999999999999902 ) ) ;
#110 = CARTESIAN_POINT ( 'NONE',  ( 1.419999999999999929, 0.0000000000000000000, -0.7874999999999995337 ) ) ;
#111 = DIRECTION ( 'NONE',  ( 0.0000000000000000000, 0.0000000000000000000, -1.000000000000000000 ) ) ;
#112 = DIRECTION ( 'NONE',  ( -1.000000000000000000, 0.0000000000000000000, 0.0000000000000000000 ) ) ;
#113 = CARTESIAN_POINT ( 'NONE',  ( 1.600000000000000311, 1.243016501134563341E-16, 1.014999999999999902 ) ) ;
#114 = VERTEX_POINT ( 'NONE', #56 ) ;
#115 = CIRCLE ( 'NONE', #101, 0.7874999999999995337 ) ;
#116 = CARTESIAN_POINT ( 'NONE',  ( 1.419999999999999929, 0.0000000000000000000, -0.7874999999999995337 ) ) ;
#117 = EDGE_CURVE ( 'NONE', #149, #187, #217, .T. ) ;
#118 = CARTESIAN_POINT ( 'NONE',  ( 1.419999999999999929, 9.644093543285401792E-17, 0.7874999999999995337 ) ) ;
#119 = UNCERTAINTY_MEASURE_WITH_UNIT (LENGTH_MEASURE( 1.000000000000000082E-05 ), #36, 'distance_accuracy_value', 'NONE');
#120 = AXIS2_PLACEMENT_3D ( 'NONE', #110, #112, #27 ) ;
#121 = CARTESIAN_POINT ( 'NONE',  ( -1.600000000000000311, 0.0000000000000000000, 0.0000000000000000000 ) ) ;
#122 = FILL_AREA_STYLE ('',( #123 ) ) ;
#123 = FILL_AREA_STYLE_COLOUR ( '', #166 ) ;
#124 =( GEOMETRIC_REPRESENTATION_CONTEXT ( 3 ) GLOBAL_UNCERTAINTY_ASSIGNED_CONTEXT ( ( #150 ) ) GLOBAL_UNIT_ASSIGNED_CONTEXT ( ( #30, #192, #209 ) ) REPRESENTATION_CONTEXT ( 'NONE', 'WORKASPACE' ) );
#125 = LINE ( 'NONE', #113, #128 ) ;
#126 = CARTESIAN_POINT ( 'NONE',  ( 1.600000000000000311, 9.644093543285401792E-17, 0.7874999999999995337 ) ) ;
#127 = CARTESIAN_POINT ( 'NONE',  ( 1.419999999999999929, 0.0000000000000000000, 0.0000000000000000000 ) ) ;
#128 = VECTOR ( 'NONE', #161, 1000.000000000000000 ) ;
#129 = CARTESIAN_POINT ( 'NONE',  ( 1.600000000000000311, 0.0000000000000000000, 0.0000000000000000000 ) ) ;
#130 = DIRECTION ( 'NONE',  ( -0.0000000000000000000, 0.0000000000000000000, -1.000000000000000000 ) ) ;
#131 = SURFACE_STYLE_FILL_AREA ( #84 ) ;
#132 = PRESENTATION_LAYER_ASSIGNMENT (  '', '', ( #219 ) ) ;
#133 = ADVANCED_FACE ( 'NONE', ( #15 ), #68, .T. ) ;
#134 = ORIENTED_EDGE ( 'NONE', *, *, #20, .F. ) ;
#135 = ORIENTED_EDGE ( 'NONE', *, *, #92, .F. ) ;
#136 = AXIS2_PLACEMENT_3D ( 'NONE', #177, #33, #130 ) ;
#137 = VERTEX_POINT ( 'NONE', #182 ) ;
#138 = EDGE_LOOP ( 'NONE', ( #211, #41, #91, #60 ) ) ;
#139 = CARTESIAN_POINT ( 'NONE',  ( -1.600000000000000311, 0.0000000000000000000, 0.0000000000000000000 ) ) ;
#140 = AXIS2_PLACEMENT_3D ( 'NONE', #37, #2, #38 ) ;
#141 = MECHANICAL_DESIGN_GEOMETRIC_PRESENTATION_REPRESENTATION (  '', ( #219 ), #22 ) ;
#142 = APPLICATION_CONTEXT ( 'automotive_design' ) ;
#143 = CARTESIAN_POINT ( 'NONE',  ( 1.599999999999999867, 0.0000000000000000000, 0.0000000000000000000 ) ) ;
#144 = VERTEX_POINT ( 'NONE', #118 ) ;
#145 = DIRECTION ( 'NONE',  ( 1.000000000000000000, -0.0000000000000000000, -0.0000000000000000000 ) ) ;
#146 = PRODUCT_DEFINITION_CONTEXT ( 'detailed design', #153, 'design' ) ;
#147 = ORIENTED_EDGE ( 'NONE', *, *, #45, .F. ) ;
#148 = AXIS2_PLACEMENT_3D ( 'NONE', #143, #214, #159 ) ;
#149 = VERTEX_POINT ( 'NONE', #164 ) ;
#150 = UNCERTAINTY_MEASURE_WITH_UNIT (LENGTH_MEASURE( 1.000000000000000082E-05 ), #30, 'distance_accuracy_value', 'NONE');
#151 = FACE_OUTER_BOUND ( 'NONE', #152, .T. ) ;
#152 = EDGE_LOOP ( 'NONE', ( #61, #46, #90, #207 ) ) ;
#153 = APPLICATION_CONTEXT ( 'automotive_design' ) ;
#154 = DIRECTION ( 'NONE',  ( 1.000000000000000000, -0.0000000000000000000, -0.0000000000000000000 ) ) ;
#155 = VERTEX_POINT ( 'NONE', #89 ) ;
#156 = CYLINDRICAL_SURFACE ( 'NONE', #218, 1.014999999999999902 ) ;
#157 = EDGE_LOOP ( 'NONE', ( #169, #23 ) ) ;
#158 = FACE_BOUND ( 'NONE', #96, .T. ) ;
#159 = DIRECTION ( 'NONE',  ( 0.0000000000000000000, 0.0000000000000000000, -1.000000000000000000 ) ) ;
#160 = EDGE_CURVE ( 'NONE', #187, #137, #199, .T. ) ;
#161 = DIRECTION ( 'NONE',  ( 1.000000000000000000, -0.0000000000000000000, -0.0000000000000000000 ) ) ;
#162 = CIRCLE ( 'NONE', #21, 1.014999999999999902 ) ;
#163 = PRESENTATION_STYLE_ASSIGNMENT (( #31 ) ) ;
#164 = CARTESIAN_POINT ( 'NONE',  ( 1.419999999999999929, 0.0000000000000000000, -1.014999999999999902 ) ) ;
#165 = ADVANCED_FACE ( 'NONE', ( #151 ), #5, .T. ) ;
#166 = COLOUR_RGB ( '',0.9686274509803921573, 0.8784313725490195957, 0.5999999999999999778 ) ;
#167 = DIRECTION ( 'NONE',  ( 1.000000000000000000, -0.0000000000000000000, -0.0000000000000000000 ) ) ;
#168 = PRODUCT_DEFINITION_FORMATION_WITH_SPECIFIED_SOURCE ( 'ANY', '', #25, .NOT_KNOWN. ) ;
#169 = ORIENTED_EDGE ( 'NONE', *, *, #160, .T. ) ;
#170 = FACE_OUTER_BOUND ( 'NONE', #77, .T. ) ;
#171 = ADVANCED_FACE ( 'NONE', ( #170 ), #156, .T. ) ;
#172 = CARTESIAN_POINT ( 'NONE',  ( 1.599999999999999867, 0.0000000000000000000, -1.014999999999999902 ) ) ;
#173 = CARTESIAN_POINT ( 'NONE',  ( 1.419999999999999929, 0.0000000000000000000, 0.0000000000000000000 ) ) ;
#174 = ORIENTED_EDGE ( 'NONE', *, *, #57, .F. ) ;
#175 = CARTESIAN_POINT ( 'NONE',  ( -1.600000000000000311, 0.0000000000000000000, 0.0000000000000000000 ) ) ;
#176 =( NAMED_UNIT ( * ) SI_UNIT ( $, .STERADIAN. ) SOLID_ANGLE_UNIT ( ) );
#177 = CARTESIAN_POINT ( 'NONE',  ( 1.600000000000000089, 0.0000000000000000000, -1.014999999999999902 ) ) ;
#178 = CARTESIAN_POINT ( 'NONE',  ( 0.0000000000000000000, 0.0000000000000000000, 0.0000000000000000000 ) ) ;
#179 = CYLINDRICAL_SURFACE ( 'NONE', #212, 1.014999999999999902 ) ;
#180 = ADVANCED_FACE ( 'NONE', ( #108 ), #205, .T. ) ;
#181 = APPLICATION_PROTOCOL_DEFINITION ( 'draft international standard', 'automotive_design', 1998, #153 ) ;
#182 = CARTESIAN_POINT ( 'NONE',  ( 1.599999999999999867, 1.243016501134563341E-16, 1.014999999999999902 ) ) ;
#183 =( NAMED_UNIT ( * ) PLANE_ANGLE_UNIT ( ) SI_UNIT ( $, .RADIAN. ) );
#184 = ADVANCED_BREP_SHAPE_REPRESENTATION ( 'IF-PI-3.20-2.03', ( #39, #54 ), #66 ) ;
#185 = ADVANCED_FACE ( 'NONE', ( #158, #76 ), #106, .T. ) ;
#186 = VECTOR ( 'NONE', #47, 1000.000000000000000 ) ;
#187 = VERTEX_POINT ( 'NONE', #172 ) ;
#188 = MECHANICAL_DESIGN_GEOMETRIC_PRESENTATION_REPRESENTATION (  '', ( #42 ), #124 ) ;
#189 = SURFACE_SIDE_STYLE ('',( #43 ) ) ;
#190 = CARTESIAN_POINT ( 'NONE',  ( 1.419999999999999929, 0.0000000000000000000, 0.0000000000000000000 ) ) ;
#191 = SURFACE_SIDE_STYLE ('',( #131 ) ) ;
#192 =( NAMED_UNIT ( * ) PLANE_ANGLE_UNIT ( ) SI_UNIT ( $, .RADIAN. ) );
#193 = DIRECTION ( 'NONE',  ( 1.000000000000000000, -0.0000000000000000000, -0.0000000000000000000 ) ) ;
#194 = AXIS2_PLACEMENT_3D ( 'NONE', #93, #12, #111 ) ;
#195 = DIRECTION ( 'NONE',  ( 1.000000000000000000, -0.0000000000000000000, -0.0000000000000000000 ) ) ;
#196 = PRESENTATION_STYLE_ASSIGNMENT (( #87 ) ) ;
#197 = PRODUCT_RELATED_PRODUCT_CATEGORY ( 'part', '', ( #25 ) ) ;
#198 = SHAPE_DEFINITION_REPRESENTATION ( #13, #184 ) ;
#199 = CIRCLE ( 'NONE', #140, 1.014999999999999902 ) ;
#200 = DIRECTION ( 'NONE',  ( 0.0000000000000000000, 0.0000000000000000000, -1.000000000000000000 ) ) ;
#201 = ORIENTED_EDGE ( 'NONE', *, *, #57, .T. ) ;
#202 = AXIS2_PLACEMENT_3D ( 'NONE', #129, #195, #86 ) ;
#203 = CARTESIAN_POINT ( 'NONE',  ( 1.600000000000000311, 0.0000000000000000000, 0.0000000000000000000 ) ) ;
#204 = ORIENTED_EDGE ( 'NONE', *, *, #18, .F. ) ;
#205 = PLANE ( 'NONE',  #95 ) ;
#206 = AXIS2_PLACEMENT_3D ( 'NONE', #173, #94, #80 ) ;
#207 = ORIENTED_EDGE ( 'NONE', *, *, #215, .F. ) ;
#208 = DIRECTION ( 'NONE',  ( 1.000000000000000000, -0.0000000000000000000, -0.0000000000000000000 ) ) ;
#209 =( NAMED_UNIT ( * ) SI_UNIT ( $, .STERADIAN. ) SOLID_ANGLE_UNIT ( ) );
#210 = CARTESIAN_POINT ( 'NONE',  ( 1.600000000000000311, 0.0000000000000000000, -0.7874999999999995337 ) ) ;
#211 = ORIENTED_EDGE ( 'NONE', *, *, #20, .T. ) ;
#212 = AXIS2_PLACEMENT_3D ( 'NONE', #34, #145, #200 ) ;
#213 = DIRECTION ( 'NONE',  ( 1.000000000000000000, -0.0000000000000000000, -0.0000000000000000000 ) ) ;
#214 = DIRECTION ( 'NONE',  ( 1.000000000000000000, -0.0000000000000000000, -0.0000000000000000000 ) ) ;
#215 = EDGE_CURVE ( 'NONE', #155, #83, #9, .T. ) ;
#216 = ORIENTED_EDGE ( 'NONE', *, *, #79, .F. ) ;
#217 = LINE ( 'NONE', #99, #19 ) ;
#218 = AXIS2_PLACEMENT_3D ( 'NONE', #74, #208, #44 ) ;
#219 = STYLED_ITEM ( 'NONE', ( #196 ), #184 ) ;
#220 = PRODUCT_CONTEXT ( 'NONE', #142, 'mechanical' ) ;
ENDSEC;
END-ISO-10303-21;
