ISO-10303-21;
HEADER;
FILE_DESCRIPTION (( 'STEP AP214' ),
    '1' );
FILE_NAME ('IF-PI-8.3-2.0_2017_08_21.STEP',
    '2017-08-21T09:38:02',
    ( '' ),
    ( '' ),
    'SwSTEP 2.0',
    'SolidWorks 2017',
    '' );
FILE_SCHEMA (( 'AUTOMOTIVE_DESIGN' ));
ENDSEC;

DATA;
#1 = CARTESIAN_POINT ( 'NONE',  ( -1.000000000000000000, 0.0000000000000000000, -8.300000000000000700 ) ) ;
#2 = CARTESIAN_POINT ( 'NONE',  ( -6.270084852928218000E-016, 0.0000000000000000000, -8.000000000000000000 ) ) ;
#3 = DIRECTION ( 'NONE',  ( 7.837606066160273700E-017, 0.0000000000000000000, 1.000000000000000000 ) ) ;
#4 = APPLICATION_CONTEXT ( 'automotive_design' ) ;
#5 = PLANE ( 'NONE',  #121 ) ;
#6 = CYLINDRICAL_SURFACE ( 'NONE', #51, 0.7849999999999997000 ) ;
#7 = FILL_AREA_STYLE_COLOUR ( '', #175 ) ;
#8 = EDGE_LOOP ( 'NONE', ( #185, #112, #165, #104 ) ) ;
#9 = VECTOR ( 'NONE', #83, 1000.000000000000000 ) ;
#10 = CIRCLE ( 'NONE', #117, 0.9999999999999991100 ) ;
#11 = ORIENTED_EDGE ( 'NONE', *, *, #46, .T. ) ;
#12 = CARTESIAN_POINT ( 'NONE',  ( -6.270084852928218000E-016, 0.0000000000000000000, -8.000000000000000000 ) ) ;
#13 = CARTESIAN_POINT ( 'NONE',  ( -0.7850000000000000300, 0.0000000000000000000, -8.000000000000000000 ) ) ;
#14 = DIRECTION ( 'NONE',  ( -1.000000000000000000, 0.0000000000000000000, 0.0000000000000000000 ) ) ;
#15 = DIRECTION ( 'NONE',  ( -1.000000000000000000, 0.0000000000000000000, 7.837606066160273700E-017 ) ) ;
#16 = CARTESIAN_POINT ( 'NONE',  ( -6.505213034913026600E-016, 0.0000000000000000000, -8.300000000000000700 ) ) ;
#17 = VECTOR ( 'NONE', #49, 1000.000000000000000 ) ;
#18 = SURFACE_STYLE_USAGE ( .BOTH. , #132 ) ;
#19 = PRODUCT_RELATED_PRODUCT_CATEGORY ( 'part', '', ( #152 ) ) ;
#20 = PRODUCT_CONTEXT ( 'NONE', #156, 'mechanical' ) ;
#21 = DIRECTION ( 'NONE',  ( -1.000000000000000000, 0.0000000000000000000, 0.0000000000000000000 ) ) ;
#22 =( GEOMETRIC_REPRESENTATION_CONTEXT ( 3 ) GLOBAL_UNCERTAINTY_ASSIGNED_CONTEXT ( ( #77 ) ) GLOBAL_UNIT_ASSIGNED_CONTEXT ( ( #63, #188, #61 ) ) REPRESENTATION_CONTEXT ( 'NONE', 'WORKASPACE' ) );
#23 = CARTESIAN_POINT ( 'NONE',  ( -0.7850000000000000300, 0.0000000000000000000, -8.000000000000000000 ) ) ;
#24 = DIRECTION ( 'NONE',  ( 1.000000000000000000, 0.0000000000000000000, 0.0000000000000000000 ) ) ;
#25 = CLOSED_SHELL ( 'NONE', ( #110, #94, #33, #214, #217, #60, #95 ) ) ;
#26 = FACE_OUTER_BOUND ( 'NONE', #119, .T. ) ;
#27 = UNCERTAINTY_MEASURE_WITH_UNIT (LENGTH_MEASURE( 1.000000000000000100E-005 ), #159, 'distance_accuracy_value', 'NONE');
#28 = EDGE_CURVE ( 'NONE', #44, #105, #82, .T. ) ;
#29 = VERTEX_POINT ( 'NONE', #31 ) ;
#30 = VERTEX_POINT ( 'NONE', #93 ) ;
#31 = CARTESIAN_POINT ( 'NONE',  ( -0.7850000000000000300, 0.0000000000000000000, 6.152520761935815400E-017 ) ) ;
#32 = AXIS2_PLACEMENT_3D ( 'NONE', #108, #36, #48 ) ;
#33 = ADVANCED_FACE ( 'NONE', ( #206 ), #198, .T. ) ;
#34 = DIRECTION ( 'NONE',  ( -7.837606066160273700E-017, -0.0000000000000000000, -1.000000000000000000 ) ) ;
#35 = DIRECTION ( 'NONE',  ( -1.000000000000000000, 0.0000000000000000000, 0.0000000000000000000 ) ) ;
#36 = DIRECTION ( 'NONE',  ( -7.837606066160273700E-017, -0.0000000000000000000, -1.000000000000000000 ) ) ;
#37 = VERTEX_POINT ( 'NONE', #57 ) ;
#38 = CARTESIAN_POINT ( 'NONE',  ( -6.505213034913026600E-016, 0.0000000000000000000, -8.300000000000000700 ) ) ;
#39 = EDGE_CURVE ( 'NONE', #30, #52, #107, .T. ) ;
#40 = SURFACE_STYLE_USAGE ( .BOTH. , #67 ) ;
#41 = LINE ( 'NONE', #181, #17 ) ;
#42 = SURFACE_STYLE_FILL_AREA ( #115 ) ;
#43 = STYLED_ITEM ( 'NONE', ( #50 ), #122 ) ;
#44 = VERTEX_POINT ( 'NONE', #201 ) ;
#45 = DIRECTION ( 'NONE',  ( -1.000000000000000000, 0.0000000000000000000, 7.837606066160273700E-017 ) ) ;
#46 = EDGE_CURVE ( 'NONE', #212, #37, #219, .T. ) ;
#47 = DIRECTION ( 'NONE',  ( -1.000000000000000000, 0.0000000000000000000, 0.0000000000000000000 ) ) ;
#48 = DIRECTION ( 'NONE',  ( -1.000000000000000000, 0.0000000000000000000, 0.0000000000000000000 ) ) ;
#49 = DIRECTION ( 'NONE',  ( -7.837606066160273700E-017, -0.0000000000000000000, -1.000000000000000000 ) ) ;
#50 = PRESENTATION_STYLE_ASSIGNMENT (( #18 ) ) ;
#51 = AXIS2_PLACEMENT_3D ( 'NONE', #38, #157, #21 ) ;
#52 = VERTEX_POINT ( 'NONE', #13 ) ;
#53 = ORIENTED_EDGE ( 'NONE', *, *, #211, .F. ) ;
#54 = AXIS2_PLACEMENT_3D ( 'NONE', #12, #124, #58 ) ;
#55 = EDGE_CURVE ( 'NONE', #44, #37, #41, .T. ) ;
#56 = LINE ( 'NONE', #80, #161 ) ;
#57 = CARTESIAN_POINT ( 'NONE',  ( -1.000000000000000000, 0.0000000000000000000, -8.300000000000000700 ) ) ;
#58 = DIRECTION ( 'NONE',  ( -1.000000000000000000, 0.0000000000000000000, 0.0000000000000000000 ) ) ;
#59 = AXIS2_PLACEMENT_3D ( 'NONE', #149, #34, #148 ) ;
#60 = ADVANCED_FACE ( 'NONE', ( #26 ), #200, .T. ) ;
#61 =( NAMED_UNIT ( * ) SI_UNIT ( $, .STERADIAN. ) SOLID_ANGLE_UNIT ( ) );
#62 = CARTESIAN_POINT ( 'NONE',  ( 0.7850000000000000300, 9.613477373306726000E-017, -6.152520761935815400E-017 ) ) ;
#63 =( LENGTH_UNIT ( ) NAMED_UNIT ( * ) SI_UNIT ( .MILLI., .METRE. ) );
#64 = FACE_OUTER_BOUND ( 'NONE', #144, .T. ) ;
#65 = ORIENTED_EDGE ( 'NONE', *, *, #39, .T. ) ;
#66 = FILL_AREA_STYLE_COLOUR ( '', #134 ) ;
#67 = SURFACE_SIDE_STYLE ('',( #69 ) ) ;
#68 = AXIS2_PLACEMENT_3D ( 'NONE', #133, #111, #47 ) ;
#69 = SURFACE_STYLE_FILL_AREA ( #116 ) ;
#70 =( NAMED_UNIT ( * ) PLANE_ANGLE_UNIT ( ) SI_UNIT ( $, .RADIAN. ) );
#71 = EDGE_CURVE ( 'NONE', #29, #52, #56, .T. ) ;
#72 = ORIENTED_EDGE ( 'NONE', *, *, #71, .T. ) ;
#73 = ORIENTED_EDGE ( 'NONE', *, *, #197, .T. ) ;
#74 = AXIS2_PLACEMENT_3D ( 'NONE', #166, #127, #126 ) ;
#75 = VERTEX_POINT ( 'NONE', #62 ) ;
#76 = EDGE_LOOP ( 'NONE', ( #53, #176, #72, #204 ) ) ;
#77 = UNCERTAINTY_MEASURE_WITH_UNIT (LENGTH_MEASURE( 1.000000000000000100E-005 ), #63, 'distance_accuracy_value', 'NONE');
#78 = AXIS2_PLACEMENT_3D ( 'NONE', #16, #220, #169 ) ;
#79 = PRESENTATION_STYLE_ASSIGNMENT (( #40 ) ) ;
#80 = CARTESIAN_POINT ( 'NONE',  ( -0.7850000000000003600, 0.0000000000000000000, -8.300000000000000700 ) ) ;
#81 = CARTESIAN_POINT ( 'NONE',  ( -6.270084852928218000E-016, 0.0000000000000000000, -8.000000000000000000 ) ) ;
#82 = CIRCLE ( 'NONE', #193, 0.9999999999999991100 ) ;
#83 = DIRECTION ( 'NONE',  ( -7.837606066160273700E-017, -0.0000000000000000000, -1.000000000000000000 ) ) ;
#84 = APPLICATION_PROTOCOL_DEFINITION ( 'draft international standard', 'automotive_design', 1998, #4 ) ;
#85 = FACE_OUTER_BOUND ( 'NONE', #118, .T. ) ;
#86 =( GEOMETRIC_REPRESENTATION_CONTEXT ( 3 ) GLOBAL_UNCERTAINTY_ASSIGNED_CONTEXT ( ( #140 ) ) GLOBAL_UNIT_ASSIGNED_CONTEXT ( ( #103, #70, #171 ) ) REPRESENTATION_CONTEXT ( 'NONE', 'WORKASPACE' ) );
#87 = ORIENTED_EDGE ( 'NONE', *, *, #55, .T. ) ;
#88 = PRESENTATION_LAYER_ASSIGNMENT (  '', '', ( #43 ) ) ;
#89 = ORIENTED_EDGE ( 'NONE', *, *, #96, .T. ) ;
#90 = PRODUCT_DEFINITION_SHAPE ( 'NONE', 'NONE',  #162 ) ;
#91 = CYLINDRICAL_SURFACE ( 'NONE', #68, 0.9999999999999991100 ) ;
#92 = DIRECTION ( 'NONE',  ( -7.837606066160273700E-017, -0.0000000000000000000, -1.000000000000000000 ) ) ;
#93 = CARTESIAN_POINT ( 'NONE',  ( 0.7849999999999987000, 9.613477373306717400E-017, -8.000000000000000000 ) ) ;
#94 = ADVANCED_FACE ( 'NONE', ( #106 ), #100, .T. ) ;
#95 = ADVANCED_FACE ( 'NONE', ( #64 ), #151, .T. ) ;
#96 = EDGE_CURVE ( 'NONE', #105, #44, #10, .T. ) ;
#97 = ORIENTED_EDGE ( 'NONE', *, *, #150, .F. ) ;
#98 = DIRECTION ( 'NONE',  ( -7.837606066160273700E-017, -0.0000000000000000000, -1.000000000000000000 ) ) ;
#99 = CARTESIAN_POINT ( 'NONE',  ( 0.9999999999999985600, 1.224646799147352200E-016, -8.300000000000000700 ) ) ;
#100 = CYLINDRICAL_SURFACE ( 'NONE', #78, 0.7849999999999997000 ) ;
#101 = APPLICATION_PROTOCOL_DEFINITION ( 'draft international standard', 'automotive_design', 1998, #156 ) ;
#102 = AXIS2_PLACEMENT_3D ( 'NONE', #2, #130, #35 ) ;
#103 =( LENGTH_UNIT ( ) NAMED_UNIT ( * ) SI_UNIT ( .MILLI., .METRE. ) );
#104 = ORIENTED_EDGE ( 'NONE', *, *, #55, .F. ) ;
#105 = VERTEX_POINT ( 'NONE', #114 ) ;
#106 = FACE_OUTER_BOUND ( 'NONE', #164, .T. ) ;
#107 = CIRCLE ( 'NONE', #54, 0.7849999999999993600 ) ;
#108 = CARTESIAN_POINT ( 'NONE',  ( -6.505213034913026600E-016, 0.0000000000000000000, -8.300000000000000700 ) ) ;
#109 = DIRECTION ( 'NONE',  ( -1.000000000000000000, 0.0000000000000000000, 0.0000000000000000000 ) ) ;
#110 = ADVANCED_FACE ( 'NONE', ( #194 ), #91, .T. ) ;
#111 = DIRECTION ( 'NONE',  ( -7.837606066160273700E-017, -0.0000000000000000000, -1.000000000000000000 ) ) ;
#112 = ORIENTED_EDGE ( 'NONE', *, *, #150, .T. ) ;
#113 = ORIENTED_EDGE ( 'NONE', *, *, #163, .F. ) ;
#114 = CARTESIAN_POINT ( 'NONE',  ( 0.9999999999999985600, 1.224646799147352200E-016, -8.000000000000000000 ) ) ;
#115 = FILL_AREA_STYLE ('',( #66 ) ) ;
#116 = FILL_AREA_STYLE ('',( #7 ) ) ;
#117 = AXIS2_PLACEMENT_3D ( 'NONE', #81, #98, #14 ) ;
#118 = EDGE_LOOP ( 'NONE', ( #146, #213 ) ) ;
#119 = EDGE_LOOP ( 'NONE', ( #97, #89, #87, #190 ) ) ;
#120 = PRODUCT_DEFINITION_FORMATION_WITH_SPECIFIED_SOURCE ( 'ANY', '', #152, .NOT_KNOWN. ) ;
#121 = AXIS2_PLACEMENT_3D ( 'NONE', #23, #3, #209 ) ;
#122 = MANIFOLD_SOLID_BREP ( 'Rotation1', #25 ) ;
#123 = ORIENTED_EDGE ( 'NONE', *, *, #211, .T. ) ;
#124 = DIRECTION ( 'NONE',  ( -7.837606066160273700E-017, -0.0000000000000000000, -1.000000000000000000 ) ) ;
#125 = FACE_BOUND ( 'NONE', #139, .T. ) ;
#126 = DIRECTION ( 'NONE',  ( 1.000000000000000000, 0.0000000000000000000, -7.837606066160273700E-017 ) ) ;
#127 = DIRECTION ( 'NONE',  ( 7.837606066160273700E-017, 0.0000000000000000000, 1.000000000000000000 ) ) ;
#128 = MECHANICAL_DESIGN_GEOMETRIC_PRESENTATION_REPRESENTATION (  '', ( #208 ), #141 ) ;
#129 = CARTESIAN_POINT ( 'NONE',  ( 9.629649721936179300E-032, 0.0000000000000000000, 0.0000000000000000000 ) ) ;
#130 = DIRECTION ( 'NONE',  ( -7.837606066160273700E-017, -0.0000000000000000000, -1.000000000000000000 ) ) ;
#131 = ORIENTED_EDGE ( 'NONE', *, *, #71, .F. ) ;
#132 = SURFACE_SIDE_STYLE ('',( #42 ) ) ;
#133 = CARTESIAN_POINT ( 'NONE',  ( -6.505213034913026600E-016, 0.0000000000000000000, -8.300000000000000700 ) ) ;
#134 = COLOUR_RGB ( '',0.8274509803921568100, 0.6666666666666666300, 0.1294117647058823400 ) ;
#135 = PRESENTATION_LAYER_ASSIGNMENT (  '', '', ( #208 ) ) ;
#136 = DIRECTION ( 'NONE',  ( 0.0000000000000000000, 0.0000000000000000000, 1.000000000000000000 ) ) ;
#137 = FACE_OUTER_BOUND ( 'NONE', #76, .T. ) ;
#138 = EDGE_CURVE ( 'NONE', #29, #75, #192, .T. ) ;
#139 = EDGE_LOOP ( 'NONE', ( #73, #65 ) ) ;
#140 = UNCERTAINTY_MEASURE_WITH_UNIT (LENGTH_MEASURE( 1.000000000000000100E-005 ), #103, 'distance_accuracy_value', 'NONE');
#141 =( GEOMETRIC_REPRESENTATION_CONTEXT ( 3 ) GLOBAL_UNCERTAINTY_ASSIGNED_CONTEXT ( ( #27 ) ) GLOBAL_UNIT_ASSIGNED_CONTEXT ( ( #159, #174, #172 ) ) REPRESENTATION_CONTEXT ( 'NONE', 'WORKASPACE' ) );
#142 = LINE ( 'NONE', #99, #196 ) ;
#143 = CARTESIAN_POINT ( 'NONE',  ( -6.270084852928218000E-016, 0.0000000000000000000, -8.000000000000000000 ) ) ;
#144 = EDGE_LOOP ( 'NONE', ( #154, #11 ) ) ;
#145 = CIRCLE ( 'NONE', #178, 0.7850000000000000300 ) ;
#146 = ORIENTED_EDGE ( 'NONE', *, *, #28, .F. ) ;
#147 = AXIS2_PLACEMENT_3D ( 'NONE', #1, #189, #15 ) ;
#148 = DIRECTION ( 'NONE',  ( -1.000000000000000000, 0.0000000000000000000, 0.0000000000000000000 ) ) ;
#149 = CARTESIAN_POINT ( 'NONE',  ( -6.505213034913026600E-016, 0.0000000000000000000, -8.300000000000000700 ) ) ;
#150 = EDGE_CURVE ( 'NONE', #105, #212, #142, .T. ) ;
#151 = PLANE ( 'NONE',  #147 ) ;
#152 = PRODUCT ( 'IF-PI-8.3-2.0_2017_08_21', 'IF-PI-8.3-2.0_2017_08_21', '', ( #20 ) ) ;
#153 = DIRECTION ( 'NONE',  ( -7.837606066160273700E-017, -0.0000000000000000000, -1.000000000000000000 ) ) ;
#154 = ORIENTED_EDGE ( 'NONE', *, *, #158, .T. ) ;
#155 = CARTESIAN_POINT ( 'NONE',  ( 9.629649721936179300E-032, 0.0000000000000000000, 0.0000000000000000000 ) ) ;
#156 = APPLICATION_CONTEXT ( 'automotive_design' ) ;
#157 = DIRECTION ( 'NONE',  ( -7.837606066160273700E-017, -0.0000000000000000000, -1.000000000000000000 ) ) ;
#158 = EDGE_CURVE ( 'NONE', #37, #212, #179, .T. ) ;
#159 =( LENGTH_UNIT ( ) NAMED_UNIT ( * ) SI_UNIT ( .MILLI., .METRE. ) );
#160 = EDGE_LOOP ( 'NONE', ( #180, #113 ) ) ;
#161 = VECTOR ( 'NONE', #216, 1000.000000000000000 ) ;
#162 = PRODUCT_DEFINITION ( 'UNKNOWN', '', #120, #186 ) ;
#163 = EDGE_CURVE ( 'NONE', #75, #29, #145, .T. ) ;
#164 = EDGE_LOOP ( 'NONE', ( #199, #123, #170, #131 ) ) ;
#165 = ORIENTED_EDGE ( 'NONE', *, *, #158, .F. ) ;
#166 = CARTESIAN_POINT ( 'NONE',  ( -2.411051702296258800E-033, 0.0000000000000000000, -3.076260380967907700E-017 ) ) ;
#167 = ADVANCED_BREP_SHAPE_REPRESENTATION ( 'IF-PI-8.3-2.0_2017_08_21', ( #122, #195 ), #86 ) ;
#168 = MECHANICAL_DESIGN_GEOMETRIC_PRESENTATION_REPRESENTATION (  '', ( #43 ), #22 ) ;
#169 = DIRECTION ( 'NONE',  ( -1.000000000000000000, 0.0000000000000000000, 0.0000000000000000000 ) ) ;
#170 = ORIENTED_EDGE ( 'NONE', *, *, #197, .F. ) ;
#171 =( NAMED_UNIT ( * ) SI_UNIT ( $, .STERADIAN. ) SOLID_ANGLE_UNIT ( ) );
#172 =( NAMED_UNIT ( * ) SI_UNIT ( $, .STERADIAN. ) SOLID_ANGLE_UNIT ( ) );
#173 = AXIS2_PLACEMENT_3D ( 'NONE', #155, #153, #205 ) ;
#174 =( NAMED_UNIT ( * ) PLANE_ANGLE_UNIT ( ) SI_UNIT ( $, .RADIAN. ) );
#175 = COLOUR_RGB ( '',0.8274509803921568100, 0.6666666666666666300, 0.1294117647058823400 ) ;
#176 = ORIENTED_EDGE ( 'NONE', *, *, #163, .T. ) ;
#177 = CIRCLE ( 'NONE', #102, 0.7849999999999993600 ) ;
#178 = AXIS2_PLACEMENT_3D ( 'NONE', #129, #187, #45 ) ;
#179 = CIRCLE ( 'NONE', #59, 0.9999999999999993300 ) ;
#180 = ORIENTED_EDGE ( 'NONE', *, *, #138, .F. ) ;
#181 = CARTESIAN_POINT ( 'NONE',  ( -0.9999999999999997800, 0.0000000000000000000, -8.300000000000000700 ) ) ;
#182 = AXIS2_PLACEMENT_3D ( 'NONE', #215, #184, #202 ) ;
#183 = LINE ( 'NONE', #218, #9 ) ;
#184 = DIRECTION ( 'NONE',  ( -7.837606066160273700E-017, -0.0000000000000000000, -1.000000000000000000 ) ) ;
#185 = ORIENTED_EDGE ( 'NONE', *, *, #28, .T. ) ;
#186 = PRODUCT_DEFINITION_CONTEXT ( 'detailed design', #4, 'design' ) ;
#187 = DIRECTION ( 'NONE',  ( -7.837606066160273700E-017, -0.0000000000000000000, -1.000000000000000000 ) ) ;
#188 =( NAMED_UNIT ( * ) PLANE_ANGLE_UNIT ( ) SI_UNIT ( $, .RADIAN. ) );
#189 = DIRECTION ( 'NONE',  ( -7.837606066160273700E-017, 0.0000000000000000000, -1.000000000000000000 ) ) ;
#190 = ORIENTED_EDGE ( 'NONE', *, *, #46, .F. ) ;
#191 = SHAPE_DEFINITION_REPRESENTATION ( #90, #167 ) ;
#192 = CIRCLE ( 'NONE', #173, 0.7850000000000000300 ) ;
#193 = AXIS2_PLACEMENT_3D ( 'NONE', #143, #92, #109 ) ;
#194 = FACE_OUTER_BOUND ( 'NONE', #8, .T. ) ;
#195 = AXIS2_PLACEMENT_3D ( 'NONE', #210, #136, #24 ) ;
#196 = VECTOR ( 'NONE', #207, 1000.000000000000000 ) ;
#197 = EDGE_CURVE ( 'NONE', #52, #30, #177, .T. ) ;
#198 = PLANE ( 'NONE',  #74 ) ;
#199 = ORIENTED_EDGE ( 'NONE', *, *, #138, .T. ) ;
#200 = CYLINDRICAL_SURFACE ( 'NONE', #182, 0.9999999999999991100 ) ;
#201 = CARTESIAN_POINT ( 'NONE',  ( -0.9999999999999997800, 0.0000000000000000000, -8.000000000000000000 ) ) ;
#202 = DIRECTION ( 'NONE',  ( -1.000000000000000000, 0.0000000000000000000, 0.0000000000000000000 ) ) ;
#203 = CARTESIAN_POINT ( 'NONE',  ( 0.9999999999999986700, 1.224646799147352500E-016, -8.300000000000000700 ) ) ;
#204 = ORIENTED_EDGE ( 'NONE', *, *, #39, .F. ) ;
#205 = DIRECTION ( 'NONE',  ( -1.000000000000000000, 0.0000000000000000000, 7.837606066160273700E-017 ) ) ;
#206 = FACE_OUTER_BOUND ( 'NONE', #160, .T. ) ;
#207 = DIRECTION ( 'NONE',  ( -7.837606066160273700E-017, -0.0000000000000000000, -1.000000000000000000 ) ) ;
#208 = STYLED_ITEM ( 'NONE', ( #79 ), #167 ) ;
#209 = DIRECTION ( 'NONE',  ( 1.000000000000000000, 0.0000000000000000000, -7.837606066160273700E-017 ) ) ;
#210 = CARTESIAN_POINT ( 'NONE',  ( 0.0000000000000000000, 0.0000000000000000000, 0.0000000000000000000 ) ) ;
#211 = EDGE_CURVE ( 'NONE', #75, #30, #183, .T. ) ;
#212 = VERTEX_POINT ( 'NONE', #203 ) ;
#213 = ORIENTED_EDGE ( 'NONE', *, *, #96, .F. ) ;
#214 = ADVANCED_FACE ( 'NONE', ( #137 ), #6, .T. ) ;
#215 = CARTESIAN_POINT ( 'NONE',  ( -6.505213034913026600E-016, 0.0000000000000000000, -8.300000000000000700 ) ) ;
#216 = DIRECTION ( 'NONE',  ( -7.837606066160273700E-017, -0.0000000000000000000, -1.000000000000000000 ) ) ;
#217 = ADVANCED_FACE ( 'NONE', ( #125, #85 ), #5, .T. ) ;
#218 = CARTESIAN_POINT ( 'NONE',  ( 0.7849999999999990300, 9.613477373306718600E-017, -8.300000000000000700 ) ) ;
#219 = CIRCLE ( 'NONE', #32, 0.9999999999999993300 ) ;
#220 = DIRECTION ( 'NONE',  ( -7.837606066160273700E-017, -0.0000000000000000000, -1.000000000000000000 ) ) ;
ENDSEC;
END-ISO-10303-21;
