ISO-10303-21;
HEADER;
FILE_DESCRIPTION (( 'STEP AP214' ),
    '1' );
FILE_NAME ('IF-PI-23.50-2.45.STEP',
    '2022-12-04T11:42:05',
    ( '' ),
    ( '' ),
    'SwSTEP 2.0',
    'SolidWorks 2022',
    '' );
FILE_SCHEMA (( 'AUTOMOTIVE_DESIGN' ));
ENDSEC;

DATA;
#1 = ORIENTED_EDGE ( 'NONE', *, *, #95, .T. ) ;
#2 = SURFACE_SIDE_STYLE ('',( #227 ) ) ;
#3 = CARTESIAN_POINT ( 'NONE',  ( 3.242252400742618017E-15, -10.24999999999999822, -1.225000000000000089 ) ) ;
#4 = EDGE_LOOP ( 'NONE', ( #67, #325, #226, #99 ) ) ;
#5 = ORIENTED_EDGE ( 'NONE', *, *, #369, .T. ) ;
#6 = AXIS2_PLACEMENT_3D ( 'NONE', #43, #383, #179 ) ;
#7 = CARTESIAN_POINT ( 'NONE',  ( 3.092233167847066830E-15, -8.750000000000000000, 0.000000000000000000 ) ) ;
#8 = CARTESIAN_POINT ( 'NONE',  ( 3.092233167847066830E-15, -11.75000000000000000, 1.000000000000000000 ) ) ;
#9 = CARTESIAN_POINT ( 'NONE',  ( 3.242252400742617623E-15, 11.75000000000000000, -1.225000000000000089 ) ) ;
#10 = VERTEX_POINT ( 'NONE', #73 ) ;
#11 = PRODUCT_RELATED_PRODUCT_CATEGORY ( 'part', '', ( #161 ) ) ;
#12 = AXIS2_PLACEMENT_3D ( 'NONE', #214, #92, #389 ) ;
#13 = AXIS2_PLACEMENT_3D ( 'NONE', #178, #333, #208 ) ;
#14 = DIRECTION ( 'NONE',  ( 0.000000000000000000, 0.000000000000000000, 1.000000000000000000 ) ) ;
#15 = DIRECTION ( 'NONE',  ( 0.000000000000000000, 0.000000000000000000, 1.000000000000000000 ) ) ;
#16 = CARTESIAN_POINT ( 'NONE',  ( 3.092233167847066830E-15, 11.75000000000000000, 0.4500000000000000111 ) ) ;
#17 = CYLINDRICAL_SURFACE ( 'NONE', #205, 1.500000000000000000 ) ;
#18 = LINE ( 'NONE', #21, #385 ) ;
#19 = FACE_OUTER_BOUND ( 'NONE', #162, .T. ) ;
#20 = ADVANCED_FACE ( 'NONE', ( #320, #176 ), #48, .F. ) ;
#21 = CARTESIAN_POINT ( 'NONE',  ( 3.171835209791644834E-15, 11.75000000000000000, -0.6499999999999995781 ) ) ;
#22 = VECTOR ( 'NONE', #387, 999.9999999999998863 ) ;
#23 = CARTESIAN_POINT ( 'NONE',  ( 3.211541874161067111E-15, 11.75000000000000000, -0.4500000000000000666 ) ) ;
#24 = CARTESIAN_POINT ( 'NONE',  ( 3.092233167847066830E-15, -6.750000000000002665, 0.000000000000000000 ) ) ;
#25 = FACE_OUTER_BOUND ( 'NONE', #204, .T. ) ;
#26 = CLOSED_SHELL ( 'NONE', ( #279, #155, #192, #185, #171, #62, #212, #145, #20, #351, #392, #40, #298, #129 ) ) ;
#27 = VECTOR ( 'NONE', #241, 1000.000000000000000 ) ;
#28 = PRODUCT_DEFINITION_FORMATION_WITH_SPECIFIED_SOURCE ( 'ANY', '', #161, .NOT_KNOWN. ) ;
#29 = LINE ( 'NONE', #345, #91 ) ;
#30 = ORIENTED_EDGE ( 'NONE', *, *, #253, .T. ) ;
#31 =( NAMED_UNIT ( * ) SI_UNIT ( $, .STERADIAN. ) SOLID_ANGLE_UNIT ( ) );
#32 = ORIENTED_EDGE ( 'NONE', *, *, #112, .T. ) ;
#33 = EDGE_CURVE ( 'NONE', #312, #225, #289, .T. ) ;
#34 = FILL_AREA_STYLE ('',( #196 ) ) ;
#35 = CARTESIAN_POINT ( 'NONE',  ( 3.092233167847066830E-15, -11.75000000000000000, 0.000000000000000000 ) ) ;
#36 = VERTEX_POINT ( 'NONE', #72 ) ;
#37 = TOROIDAL_SURFACE ( 'NONE', #180, -0.8562500000000053957, 1.506250000000004974 ) ;
#38 = AXIS2_PLACEMENT_3D ( 'NONE', #209, #329, #51 ) ;
#39 = EDGE_LOOP ( 'NONE', ( #375, #167, #173, #346 ) ) ;
#40 = ADVANCED_FACE ( 'NONE', ( #380 ), #175, .T. ) ;
#41 = DIRECTION ( 'NONE',  ( -0.000000000000000000, 1.000000000000000000, -0.000000000000000000 ) ) ;
#42 = CARTESIAN_POINT ( 'NONE',  ( 3.214697847761802372E-15, -11.75000000000000000, -1.000000000000000000 ) ) ;
#43 = CARTESIAN_POINT ( 'NONE',  ( 1.225000000000003197, -8.750000000000000000, 0.000000000000000000 ) ) ;
#44 = COLOUR_RGB ( '',0.9686274509803921573, 0.8784313725490195957, 0.5999999999999999778 ) ;
#45 = CONICAL_SURFACE ( 'NONE', #174, 1.000000000000000000, 0.1488899476094972807 ) ;
#46 = DIRECTION ( 'NONE',  ( 0.000000000000000000, 0.000000000000000000, 1.000000000000000000 ) ) ;
#47 = DIRECTION ( 'NONE',  ( -0.000000000000000000, 1.000000000000000000, -0.000000000000000000 ) ) ;
#48 = PLANE ( 'NONE',  #6 ) ;
#49 = FACE_OUTER_BOUND ( 'NONE', #39, .T. ) ;
#50 = DIRECTION ( 'NONE',  ( 0.000000000000000000, 0.000000000000000000, 1.000000000000000000 ) ) ;
#52 = EDGE_CURVE ( 'NONE', #350, #193, #220, .T. ) ;
#51 = DIRECTION ( 'NONE',  ( 0.000000000000000000, -0.000000000000000000, -1.000000000000000000 ) ) ;
#53 = DIRECTION ( 'NONE',  ( 1.224646799147352714E-16, 0.000000000000000000, -1.000000000000000000 ) ) ;
#54 = DIRECTION ( 'NONE',  ( -0.000000000000000000, 1.000000000000000000, -0.000000000000000000 ) ) ;
#55 = DIRECTION ( 'NONE',  ( -0.000000000000000000, 1.000000000000000000, -0.000000000000000000 ) ) ;
#56 = FACE_OUTER_BOUND ( 'NONE', #4, .T. ) ;
#57 = PRESENTATION_LAYER_ASSIGNMENT (  '', '', ( #256 ) ) ;
#58 = DIRECTION ( 'NONE',  ( 0.000000000000000000, 0.000000000000000000, 1.000000000000000000 ) ) ;
#59 = UNCERTAINTY_MEASURE_WITH_UNIT (LENGTH_MEASURE( 1.000000000000000082E-05 ), #390, 'distance_accuracy_value', 'NONE');
#60 = ORIENTED_EDGE ( 'NONE', *, *, #222, .F. ) ;
#61 = ORIENTED_EDGE ( 'NONE', *, *, #52, .T. ) ;
#62 = ADVANCED_FACE ( 'NONE', ( #115 ), #231, .F. ) ;
#63 = EDGE_LOOP ( 'NONE', ( #1, #5 ) ) ;
#64 = CARTESIAN_POINT ( 'NONE',  ( 3.171835209791644834E-15, -6.750000000000002665, -0.6499999999999995781 ) ) ;
#65 = ORIENTED_EDGE ( 'NONE', *, *, #396, .F. ) ;
#66 =( LENGTH_UNIT ( ) NAMED_UNIT ( * ) SI_UNIT ( .MILLI., .METRE. ) );
#67 = ORIENTED_EDGE ( 'NONE', *, *, #140, .T. ) ;
#68 = CONICAL_SURFACE ( 'NONE', #12, 1.000000000000000000, 0.1488899476094972807 ) ;
#69 = MECHANICAL_DESIGN_GEOMETRIC_PRESENTATION_REPRESENTATION (  '', ( #256 ), #284 ) ;
#70 = EDGE_CURVE ( 'NONE', #288, #400, #136, .T. ) ;
#71 = PRESENTATION_STYLE_ASSIGNMENT (( #100 ) ) ;
#72 = CARTESIAN_POINT ( 'NONE',  ( 3.171835209791644834E-15, 11.00000000000000000, -0.6499999999999995781 ) ) ;
#73 = CARTESIAN_POINT ( 'NONE',  ( 3.275930187719169946E-15, -8.750000000000000000, -1.500000000000000000 ) ) ;
#74 = ORIENTED_EDGE ( 'NONE', *, *, #253, .F. ) ;
#75 = AXIS2_PLACEMENT_3D ( 'NONE', #296, #324, #232 ) ;
#76 = AXIS2_PLACEMENT_3D ( 'NONE', #242, #297, #265 ) ;
#77 = CIRCLE ( 'NONE', #285, 0.6499999999999995781 ) ;
#78 = CARTESIAN_POINT ( 'NONE',  ( 3.092233167847066830E-15, 11.75000000000000000, 0.000000000000000000 ) ) ;
#79 = ORIENTED_EDGE ( 'NONE', *, *, #81, .F. ) ;
#80 = DIRECTION ( 'NONE',  ( -0.000000000000000000, 1.000000000000000000, -0.000000000000000000 ) ) ;
#81 = EDGE_CURVE ( 'NONE', #312, #339, #206, .T. ) ;
#82 = CIRCLE ( 'NONE', #76, 1.500000000000000000 ) ;
#83 = CARTESIAN_POINT ( 'NONE',  ( 3.039325918030970020E-15, 11.00000000000000000, 0.8562500000000053957 ) ) ;
#84 = DIRECTION ( 'NONE',  ( 0.000000000000000000, 0.000000000000000000, 1.000000000000000000 ) ) ;
#85 = ADVANCED_BREP_SHAPE_REPRESENTATION ( 'IF-PI-23.50-2.45', ( #86, #122 ), #164 ) ;
#86 = MANIFOLD_SOLID_BREP ( 'Rotation1', #26 ) ;
#87 = CYLINDRICAL_SURFACE ( 'NONE', #272, 1.500000000000000000 ) ;
#88 =( LENGTH_UNIT ( ) NAMED_UNIT ( * ) SI_UNIT ( .MILLI., .METRE. ) );
#89 = AXIS2_PLACEMENT_3D ( 'NONE', #146, #47, #113 ) ;
#90 = PLANE ( 'NONE',  #38 ) ;
#91 = VECTOR ( 'NONE', #397, 1000.000000000000000 ) ;
#92 = DIRECTION ( 'NONE',  ( -0.000000000000000000, 1.000000000000000000, -0.000000000000000000 ) ) ;
#93 = PRODUCT_DEFINITION_CONTEXT ( 'detailed design', #149, 'design' ) ;
#94 = ORIENTED_EDGE ( 'NONE', *, *, #81, .T. ) ;
#95 = EDGE_CURVE ( 'NONE', #314, #101, #315, .T. ) ;
#96 = PRESENTATION_LAYER_ASSIGNMENT (  '', '', ( #269 ) ) ;
#97 = DIRECTION ( 'NONE',  ( 0.000000000000000000, 0.000000000000000000, 1.000000000000000000 ) ) ;
#98 = TOROIDAL_SURFACE ( 'NONE', #398, -0.8562500000000053957, 1.506250000000004974 ) ;
#99 = ORIENTED_EDGE ( 'NONE', *, *, #112, .F. ) ;
#100 = SURFACE_STYLE_USAGE ( .BOTH. , #2 ) ;
#101 = VERTEX_POINT ( 'NONE', #23 ) ;
#102 = CARTESIAN_POINT ( 'NONE',  ( 0.000000000000000000, 0.000000000000000000, 0.000000000000000000 ) ) ;
#103 = DIRECTION ( 'NONE',  ( 0.000000000000000000, 0.000000000000000000, 1.000000000000000000 ) ) ;
#104 = EDGE_CURVE ( 'NONE', #317, #314, #378, .T. ) ;
#105 = VERTEX_POINT ( 'NONE', #181 ) ;
#106 = ORIENTED_EDGE ( 'NONE', *, *, #322, .F. ) ;
#107 = CIRCLE ( 'NONE', #328, 1.499999999999999778 ) ;
#108 = CIRCLE ( 'NONE', #13, 1.225000000000000089 ) ;
#109 = ORIENTED_EDGE ( 'NONE', *, *, #250, .T. ) ;
#110 = DIRECTION ( 'NONE',  ( -0.000000000000000000, 1.000000000000000000, -0.000000000000000000 ) ) ;
#111 = SURFACE_SIDE_STYLE ('',( #382 ) ) ;
#112 = EDGE_CURVE ( 'NONE', #342, #377, #266, .T. ) ;
#113 = DIRECTION ( 'NONE',  ( 0.000000000000000000, 0.000000000000000000, 1.000000000000000000 ) ) ;
#114 = CIRCLE ( 'NONE', #238, 0.4500000000000000111 ) ;
#115 = FACE_OUTER_BOUND ( 'NONE', #344, .T. ) ;
#116 = CARTESIAN_POINT ( 'NONE',  ( 3.092233167847066830E-15, -8.750000000000000000, 1.225000000000000089 ) ) ;
#117 = CARTESIAN_POINT ( 'NONE',  ( 3.092233167847066830E-15, -8.750000000000000000, 0.000000000000000000 ) ) ;
#118 = EDGE_CURVE ( 'NONE', #339, #373, #236, .T. ) ;
#119 = DIRECTION ( 'NONE',  ( 0.000000000000000000, 0.000000000000000000, 1.000000000000000000 ) ) ;
#120 = DIRECTION ( 'NONE',  ( 0.000000000000000000, 0.000000000000000000, 1.000000000000000000 ) ) ;
#121 = CIRCLE ( 'NONE', #340, 1.506250000000004974 ) ;
#122 = AXIS2_PLACEMENT_3D ( 'NONE', #102, #224, #376 ) ;
#123 =( NAMED_UNIT ( * ) SI_UNIT ( $, .STERADIAN. ) SOLID_ANGLE_UNIT ( ) );
#124 = LINE ( 'NONE', #276, #27 ) ;
#125 =( NAMED_UNIT ( * ) PLANE_ANGLE_UNIT ( ) SI_UNIT ( $, .RADIAN. ) );
#126 = DIRECTION ( 'NONE',  ( -0.000000000000000000, 1.000000000000000000, -0.000000000000000000 ) ) ;
#127 = CARTESIAN_POINT ( 'NONE',  ( 3.228475124252209997E-15, -11.75000000000000000, -1.000000000000000000 ) ) ;
#128 = EDGE_LOOP ( 'NONE', ( #313, #106 ) ) ;
#129 = ADVANCED_FACE ( 'NONE', ( #213 ), #154, .F. ) ;
#130 = ORIENTED_EDGE ( 'NONE', *, *, #396, .T. ) ;
#131 = AXIS2_PLACEMENT_3D ( 'NONE', #330, #336, #190 ) ;
#132 = EDGE_LOOP ( 'NONE', ( #165, #30, #133, #228 ) ) ;
#133 = ORIENTED_EDGE ( 'NONE', *, *, #118, .T. ) ;
#134 = APPLICATION_CONTEXT ( 'automotive_design' ) ;
#135 = ORIENTED_EDGE ( 'NONE', *, *, #177, .T. ) ;
#136 = LINE ( 'NONE', #9, #187 ) ;
#137 = AXIS2_PLACEMENT_3D ( 'NONE', #117, #55, #58 ) ;
#138 = CARTESIAN_POINT ( 'NONE',  ( 3.144186300207962859E-15, 11.00000000000000000, 0.000000000000000000 ) ) ;
#139 = FILL_AREA_STYLE ('',( #201 ) ) ;
#140 = EDGE_CURVE ( 'NONE', #342, #10, #374, .T. ) ;
#141 = EDGE_LOOP ( 'NONE', ( #65, #109, #371, #281 ) ) ;
#142 = LINE ( 'NONE', #42, #237 ) ;
#143 = PRESENTATION_STYLE_ASSIGNMENT (( #353 ) ) ;
#145 = ADVANCED_FACE ( 'NONE', ( #361 ), #274, .T. ) ;
#144 = FACE_BOUND ( 'NONE', #207, .T. ) ;
#146 = CARTESIAN_POINT ( 'NONE',  ( 3.092233167847066830E-15, -6.750000000000002665, 0.000000000000000000 ) ) ;
#147 = DIRECTION ( 'NONE',  ( -0.000000000000000000, 1.000000000000000000, -0.000000000000000000 ) ) ;
#148 = CARTESIAN_POINT ( 'NONE',  ( 3.092233167847066830E-15, -11.75000000000000000, 0.000000000000000000 ) ) ;
#149 = APPLICATION_CONTEXT ( 'automotive_design' ) ;
#150 = DIRECTION ( 'NONE',  ( -0.000000000000000000, 1.000000000000000000, -0.000000000000000000 ) ) ;
#151 = DIRECTION ( 'NONE',  ( -0.000000000000000000, 1.000000000000000000, -0.000000000000000000 ) ) ;
#152 = VECTOR ( 'NONE', #126, 1000.000000000000000 ) ;
#153 = CARTESIAN_POINT ( 'NONE',  ( 3.092233167847066830E-15, 11.75000000000000000, 0.000000000000000000 ) ) ;
#154 = PLANE ( 'NONE',  #188 ) ;
#155 = ADVANCED_FACE ( 'NONE', ( #25 ), #184, .T. ) ;
#156 = DIRECTION ( 'NONE',  ( 0.000000000000000000, 0.000000000000000000, 1.000000000000000000 ) ) ;
#157 = DIRECTION ( 'NONE',  ( -0.000000000000000000, 1.000000000000000000, -0.000000000000000000 ) ) ;
#158 = EDGE_CURVE ( 'NONE', #225, #312, #367, .T. ) ;
#159 = ORIENTED_EDGE ( 'NONE', *, *, #104, .F. ) ;
#160 = EDGE_LOOP ( 'NONE', ( #195, #252 ) ) ;
#161 = PRODUCT ( 'IF-PI-23.50-2.45', 'IF-PI-23.50-2.45', '', ( #170 ) ) ;
#162 = EDGE_LOOP ( 'NONE', ( #323, #247, #203, #221 ) ) ;
#163 = DIRECTION ( 'NONE',  ( -0.000000000000000000, 1.000000000000000000, -0.000000000000000000 ) ) ;
#164 =( GEOMETRIC_REPRESENTATION_CONTEXT ( 3 ) GLOBAL_UNCERTAINTY_ASSIGNED_CONTEXT ( ( #59 ) ) GLOBAL_UNIT_ASSIGNED_CONTEXT ( ( #390, #125, #341 ) ) REPRESENTATION_CONTEXT ( 'NONE', 'WORKASPACE' ) );
#165 = ORIENTED_EDGE ( 'NONE', *, *, #70, .F. ) ;
#166 = EDGE_CURVE ( 'NONE', #350, #317, #124, .T. ) ;
#167 = ORIENTED_EDGE ( 'NONE', *, *, #326, .T. ) ;
#168 =( NAMED_UNIT ( * ) PLANE_ANGLE_UNIT ( ) SI_UNIT ( $, .RADIAN. ) );
#169 = ORIENTED_EDGE ( 'NONE', *, *, #250, .F. ) ;
#170 = PRODUCT_CONTEXT ( 'NONE', #134, 'mechanical' ) ;
#171 = ADVANCED_FACE ( 'NONE', ( #364 ), #68, .T. ) ;
#172 = AXIS2_PLACEMENT_3D ( 'NONE', #264, #355, #46 ) ;
#173 = ORIENTED_EDGE ( 'NONE', *, *, #104, .T. ) ;
#174 = AXIS2_PLACEMENT_3D ( 'NONE', #35, #163, #103 ) ;
#175 = CYLINDRICAL_SURFACE ( 'NONE', #198, 0.6499999999999995781 ) ;
#176 = FACE_BOUND ( 'NONE', #229, .T. ) ;
#177 = EDGE_CURVE ( 'NONE', #36, #101, #121, .T. ) ;
#178 = CARTESIAN_POINT ( 'NONE',  ( 3.092233167847066830E-15, -8.750000000000000000, 0.000000000000000000 ) ) ;
#179 = DIRECTION ( 'NONE',  ( 0.000000000000000000, 0.000000000000000000, 1.000000000000000000 ) ) ;
#180 = AXIS2_PLACEMENT_3D ( 'NONE', #138, #110, #352 ) ;
#181 = CARTESIAN_POINT ( 'NONE',  ( 3.275930187719169946E-15, -6.750000000000002665, -1.499999999999999778 ) ) ;
#182 = DIRECTION ( 'NONE',  ( -0.000000000000000000, 1.000000000000000000, -0.000000000000000000 ) ) ;
#183 = DIRECTION ( 'NONE',  ( 0.000000000000000000, 0.000000000000000000, 1.000000000000000000 ) ) ;
#184 = CYLINDRICAL_SURFACE ( 'NONE', #402, 0.6499999999999995781 ) ;
#185 = ADVANCED_FACE ( 'NONE', ( #19 ), #359, .T. ) ;
#186 = MECHANICAL_DESIGN_GEOMETRIC_PRESENTATION_REPRESENTATION (  '', ( #269 ), #230 ) ;
#187 = VECTOR ( 'NONE', #257, 1000.000000000000000 ) ;
#188 = AXIS2_PLACEMENT_3D ( 'NONE', #243, #366, #332 ) ;
#189 = CARTESIAN_POINT ( 'NONE',  ( 3.092233167847066830E-15, 11.00000000000000000, 0.6499999999999995781 ) ) ;
#190 = DIRECTION ( 'NONE',  ( 0.000000000000000000, 0.000000000000000000, 1.000000000000000000 ) ) ;
#191 = CARTESIAN_POINT ( 'NONE',  ( 3.092233167847066830E-15, 11.75000000000000000, 0.000000000000000000 ) ) ;
#192 = ADVANCED_FACE ( 'NONE', ( #56 ), #17, .T. ) ;
#193 = VERTEX_POINT ( 'NONE', #64 ) ;
#194 = DIRECTION ( 'NONE',  ( -0.000000000000000000, 1.000000000000000000, -0.000000000000000000 ) ) ;
#195 = ORIENTED_EDGE ( 'NONE', *, *, #310, .T. ) ;
#196 = FILL_AREA_STYLE_COLOUR ( '', #379 ) ;
#197 = EDGE_LOOP ( 'NONE', ( #318, #277, #94, #74 ) ) ;
#198 = AXIS2_PLACEMENT_3D ( 'NONE', #78, #41, #15 ) ;
#199 = CIRCLE ( 'NONE', #271, 1.225000000000000089 ) ;
#200 = ORIENTED_EDGE ( 'NONE', *, *, #33, .T. ) ;
#201 = FILL_AREA_STYLE_COLOUR ( '', #44 ) ;
#202 = EDGE_CURVE ( 'NONE', #105, #377, #251, .T. ) ;
#203 = ORIENTED_EDGE ( 'NONE', *, *, #293, .F. ) ;
#204 = EDGE_LOOP ( 'NONE', ( #61, #130, #219, #399 ) ) ;
#205 = AXIS2_PLACEMENT_3D ( 'NONE', #391, #305, #156 ) ;
#206 = LINE ( 'NONE', #8, #22 ) ;
#207 = EDGE_LOOP ( 'NONE', ( #260, #169 ) ) ;
#208 = DIRECTION ( 'NONE',  ( 0.000000000000000000, 0.000000000000000000, 1.000000000000000000 ) ) ;
#209 = CARTESIAN_POINT ( 'NONE',  ( 1.500000000000002887, -6.750000000000000888, 0.000000000000000000 ) ) ;
#210 =( NAMED_UNIT ( * ) PLANE_ANGLE_UNIT ( ) SI_UNIT ( $, .RADIAN. ) );
#212 = ADVANCED_FACE ( 'NONE', ( #311 ), #45, .T. ) ;
#211 = CARTESIAN_POINT ( 'NONE',  ( 3.092233167847066830E-15, 11.00000000000000000, 0.000000000000000000 ) ) ;
#213 = FACE_OUTER_BOUND ( 'NONE', #63, .T. ) ;
#214 = CARTESIAN_POINT ( 'NONE',  ( 3.092233167847066830E-15, -11.75000000000000000, 0.000000000000000000 ) ) ;
#215 = AXIS2_PLACEMENT_3D ( 'NONE', #287, #349, #319 ) ;
#216 = CARTESIAN_POINT ( 'NONE',  ( 3.092233167847066830E-15, -6.750000000000002665, 1.499999999999999778 ) ) ;
#217 = DIRECTION ( 'NONE',  ( -0.000000000000000000, 1.000000000000000000, -0.000000000000000000 ) ) ;
#218 = PRODUCT_DEFINITION ( 'UNKNOWN', '', #28, #93 ) ;
#219 = ORIENTED_EDGE ( 'NONE', *, *, #381, .F. ) ;
#220 = CIRCLE ( 'NONE', #89, 0.6499999999999995781 ) ;
#221 = ORIENTED_EDGE ( 'NONE', *, *, #118, .F. ) ;
#222 = EDGE_CURVE ( 'NONE', #10, #105, #29, .T. ) ;
#223 = ORIENTED_EDGE ( 'NONE', *, *, #293, .T. ) ;
#224 = DIRECTION ( 'NONE',  ( 0.000000000000000000, 0.000000000000000000, 1.000000000000000000 ) ) ;
#225 = VERTEX_POINT ( 'NONE', #127 ) ;
#226 = ORIENTED_EDGE ( 'NONE', *, *, #310, .F. ) ;
#227 = SURFACE_STYLE_FILL_AREA ( #34 ) ;
#228 = ORIENTED_EDGE ( 'NONE', *, *, #357, .F. ) ;
#229 = EDGE_LOOP ( 'NONE', ( #223, #254 ) ) ;
#230 =( GEOMETRIC_REPRESENTATION_CONTEXT ( 3 ) GLOBAL_UNCERTAINTY_ASSIGNED_CONTEXT ( ( #270 ) ) GLOBAL_UNIT_ASSIGNED_CONTEXT ( ( #88, #210, #123 ) ) REPRESENTATION_CONTEXT ( 'NONE', 'WORKASPACE' ) );
#231 = PLANE ( 'NONE',  #172 ) ;
#232 = DIRECTION ( 'NONE',  ( 0.000000000000000000, 0.000000000000000000, 1.000000000000000000 ) ) ;
#233 = CARTESIAN_POINT ( 'NONE',  ( 3.092233167847066830E-15, -8.750000000000000000, 1.500000000000000000 ) ) ;
#234 = DIRECTION ( 'NONE',  ( 1.000000000000000000, 0.000000000000000000, 1.224646799147353207E-16 ) ) ;
#235 = DIRECTION ( 'NONE',  ( -0.000000000000000000, 1.000000000000000000, -0.000000000000000000 ) ) ;
#236 = LINE ( 'NONE', #302, #283 ) ;
#237 = VECTOR ( 'NONE', #261, 999.9999999999998863 ) ;
#238 = AXIS2_PLACEMENT_3D ( 'NONE', #393, #235, #295 ) ;
#239 = EDGE_CURVE ( 'NONE', #339, #288, #199, .T. ) ;
#240 = DIRECTION ( 'NONE',  ( 0.000000000000000000, 0.000000000000000000, 1.000000000000000000 ) ) ;
#241 = DIRECTION ( 'NONE',  ( -0.000000000000000000, 1.000000000000000000, -0.000000000000000000 ) ) ;
#242 = CARTESIAN_POINT ( 'NONE',  ( 3.092233167847066830E-15, -8.750000000000000000, 0.000000000000000000 ) ) ;
#243 = CARTESIAN_POINT ( 'NONE',  ( 0.4500000000000030642, 11.75000000000000000, 0.000000000000000000 ) ) ;
#244 = AXIS2_PLACEMENT_3D ( 'NONE', #191, #306, #120 ) ;
#245 = CARTESIAN_POINT ( 'NONE',  ( 3.092233167847066830E-15, -10.24999999999999822, 0.000000000000000000 ) ) ;
#246 = UNCERTAINTY_MEASURE_WITH_UNIT (LENGTH_MEASURE( 1.000000000000000082E-05 ), #66, 'distance_accuracy_value', 'NONE');
#247 = ORIENTED_EDGE ( 'NONE', *, *, #70, .T. ) ;
#248 = CARTESIAN_POINT ( 'NONE',  ( 3.092233167847066830E-15, -6.750000000000002665, 0.000000000000000000 ) ) ;
#249 = EDGE_LOOP ( 'NONE', ( #278, #135, #308, #159 ) ) ;
#250 = EDGE_CURVE ( 'NONE', #193, #350, #316, .T. ) ;
#251 = CIRCLE ( 'NONE', #384, 1.499999999999999778 ) ;
#252 = ORIENTED_EDGE ( 'NONE', *, *, #202, .T. ) ;
#253 = EDGE_CURVE ( 'NONE', #288, #339, #347, .T. ) ;
#254 = ORIENTED_EDGE ( 'NONE', *, *, #357, .T. ) ;
#255 = AXIS2_PLACEMENT_3D ( 'NONE', #268, #80, #299 ) ;
#256 = STYLED_ITEM ( 'NONE', ( #71 ), #85 ) ;
#257 = DIRECTION ( 'NONE',  ( -0.000000000000000000, 1.000000000000000000, -0.000000000000000000 ) ) ;
#258 = FACE_OUTER_BOUND ( 'NONE', #249, .T. ) ;
#259 = EDGE_LOOP ( 'NONE', ( #60, #291, #32, #338 ) ) ;
#260 = ORIENTED_EDGE ( 'NONE', *, *, #52, .F. ) ;
#261 = DIRECTION ( 'NONE',  ( 1.816646608650927023E-17, 0.9889363528682976190, -0.1483404529302446428 ) ) ;
#262 = CIRCLE ( 'NONE', #290, 1.225000000000000089 ) ;
#263 = FACE_OUTER_BOUND ( 'NONE', #259, .T. ) ;
#264 = CARTESIAN_POINT ( 'NONE',  ( 3.092233167847066830E-15, -11.75000000000000000, 0.000000000000000000 ) ) ;
#265 = DIRECTION ( 'NONE',  ( 0.000000000000000000, 0.000000000000000000, 1.000000000000000000 ) ) ;
#266 = LINE ( 'NONE', #362, #152 ) ;
#267 = EDGE_CURVE ( 'NONE', #225, #288, #142, .T. ) ;
#268 = CARTESIAN_POINT ( 'NONE',  ( 3.092233167847066830E-15, 11.75000000000000000, 0.000000000000000000 ) ) ;
#269 = STYLED_ITEM ( 'NONE', ( #143 ), #86 ) ;
#270 = UNCERTAINTY_MEASURE_WITH_UNIT (LENGTH_MEASURE( 1.000000000000000082E-05 ), #88, 'distance_accuracy_value', 'NONE');
#271 = AXIS2_PLACEMENT_3D ( 'NONE', #245, #368, #372 ) ;
#272 = AXIS2_PLACEMENT_3D ( 'NONE', #153, #388, #395 ) ;
#273 = CARTESIAN_POINT ( 'NONE',  ( 3.144186300207962859E-15, 11.00000000000000000, 0.000000000000000000 ) ) ;
#274 = CYLINDRICAL_SURFACE ( 'NONE', #244, 1.225000000000000089 ) ;
#275 = CARTESIAN_POINT ( 'NONE',  ( 3.092233167847066830E-15, -11.75000000000000000, 1.000000000000000000 ) ) ;
#276 = CARTESIAN_POINT ( 'NONE',  ( 3.092233167847066830E-15, 11.75000000000000000, 0.6499999999999995781 ) ) ;
#277 = ORIENTED_EDGE ( 'NONE', *, *, #158, .T. ) ;
#278 = ORIENTED_EDGE ( 'NONE', *, *, #381, .T. ) ;
#279 = ADVANCED_FACE ( 'NONE', ( #258 ), #37, .T. ) ;
#280 = DIRECTION ( 'NONE',  ( 0.000000000000000000, 0.000000000000000000, 1.000000000000000000 ) ) ;
#281 = ORIENTED_EDGE ( 'NONE', *, *, #326, .F. ) ;
#282 = APPLICATION_PROTOCOL_DEFINITION ( 'draft international standard', 'automotive_design', 1998, #149 ) ;
#283 = VECTOR ( 'NONE', #301, 1000.000000000000000 ) ;
#284 =( GEOMETRIC_REPRESENTATION_CONTEXT ( 3 ) GLOBAL_UNCERTAINTY_ASSIGNED_CONTEXT ( ( #246 ) ) GLOBAL_UNIT_ASSIGNED_CONTEXT ( ( #66, #168, #31 ) ) REPRESENTATION_CONTEXT ( 'NONE', 'WORKASPACE' ) );
#285 = AXIS2_PLACEMENT_3D ( 'NONE', #300, #360, #240 ) ;
#286 = ORIENTED_EDGE ( 'NONE', *, *, #267, .T. ) ;
#287 = CARTESIAN_POINT ( 'NONE',  ( 3.092233167847066830E-15, -10.24999999999999822, 0.000000000000000000 ) ) ;
#288 = VERTEX_POINT ( 'NONE', #3 ) ;
#289 = CIRCLE ( 'NONE', #75, 1.000000000000000000 ) ;
#290 = AXIS2_PLACEMENT_3D ( 'NONE', #7, #147, #84 ) ;
#291 = ORIENTED_EDGE ( 'NONE', *, *, #322, .T. ) ;
#292 = ORIENTED_EDGE ( 'NONE', *, *, #158, .F. ) ;
#293 = EDGE_CURVE ( 'NONE', #373, #400, #262, .T. ) ;
#294 = CARTESIAN_POINT ( 'NONE',  ( 3.092233167847066830E-15, 11.75000000000000000, 0.000000000000000000 ) ) ;
#295 = DIRECTION ( 'NONE',  ( 0.000000000000000000, 0.000000000000000000, 1.000000000000000000 ) ) ;
#296 = CARTESIAN_POINT ( 'NONE',  ( 3.092233167847066830E-15, -11.75000000000000000, 0.000000000000000000 ) ) ;
#298 = ADVANCED_FACE ( 'NONE', ( #49 ), #98, .T. ) ;
#297 = DIRECTION ( 'NONE',  ( -0.000000000000000000, 1.000000000000000000, -0.000000000000000000 ) ) ;
#299 = DIRECTION ( 'NONE',  ( 0.000000000000000000, 0.000000000000000000, 1.000000000000000000 ) ) ;
#300 = CARTESIAN_POINT ( 'NONE',  ( 3.092233167847066830E-15, 11.00000000000000000, 0.000000000000000000 ) ) ;
#301 = DIRECTION ( 'NONE',  ( -0.000000000000000000, 1.000000000000000000, -0.000000000000000000 ) ) ;
#302 = CARTESIAN_POINT ( 'NONE',  ( 3.092233167847066830E-15, 11.75000000000000000, 1.225000000000000089 ) ) ;
#303 = CIRCLE ( 'NONE', #354, 0.6499999999999995781 ) ;
#304 = CARTESIAN_POINT ( 'NONE',  ( 3.242252400742617623E-15, -8.750000000000000000, -1.225000000000000089 ) ) ;
#305 = DIRECTION ( 'NONE',  ( -0.000000000000000000, 1.000000000000000000, -0.000000000000000000 ) ) ;
#306 = DIRECTION ( 'NONE',  ( -0.000000000000000000, 1.000000000000000000, -0.000000000000000000 ) ) ;
#307 = DIRECTION ( 'NONE',  ( -0.000000000000000000, 1.000000000000000000, -0.000000000000000000 ) ) ;
#308 = ORIENTED_EDGE ( 'NONE', *, *, #95, .F. ) ;
#309 = AXIS2_PLACEMENT_3D ( 'NONE', #337, #307, #97 ) ;
#310 = EDGE_CURVE ( 'NONE', #377, #105, #107, .T. ) ;
#311 = FACE_OUTER_BOUND ( 'NONE', #197, .T. ) ;
#312 = VERTEX_POINT ( 'NONE', #275 ) ;
#313 = ORIENTED_EDGE ( 'NONE', *, *, #140, .F. ) ;
#314 = VERTEX_POINT ( 'NONE', #16 ) ;
#315 = CIRCLE ( 'NONE', #321, 0.4500000000000000111 ) ;
#316 = CIRCLE ( 'NONE', #309, 0.6499999999999995781 ) ;
#317 = VERTEX_POINT ( 'NONE', #189 ) ;
#318 = ORIENTED_EDGE ( 'NONE', *, *, #267, .F. ) ;
#319 = DIRECTION ( 'NONE',  ( 0.000000000000000000, 0.000000000000000000, 1.000000000000000000 ) ) ;
#320 = FACE_OUTER_BOUND ( 'NONE', #128, .T. ) ;
#321 = AXIS2_PLACEMENT_3D ( 'NONE', #294, #217, #183 ) ;
#322 = EDGE_CURVE ( 'NONE', #10, #342, #82, .T. ) ;
#323 = ORIENTED_EDGE ( 'NONE', *, *, #239, .T. ) ;
#324 = DIRECTION ( 'NONE',  ( -0.000000000000000000, 1.000000000000000000, -0.000000000000000000 ) ) ;
#325 = ORIENTED_EDGE ( 'NONE', *, *, #222, .T. ) ;
#326 = EDGE_CURVE ( 'NONE', #36, #317, #303, .T. ) ;
#327 = APPLICATION_PROTOCOL_DEFINITION ( 'draft international standard', 'automotive_design', 1998, #134 ) ;
#328 = AXIS2_PLACEMENT_3D ( 'NONE', #24, #182, #119 ) ;
#329 = DIRECTION ( 'NONE',  ( 0.000000000000000000, -1.000000000000000000, 0.000000000000000000 ) ) ;
#330 = CARTESIAN_POINT ( 'NONE',  ( 3.144186300207962859E-15, 11.00000000000000000, -0.8562500000000053957 ) ) ;
#331 = DIRECTION ( 'NONE',  ( 0.000000000000000000, 0.000000000000000000, 1.000000000000000000 ) ) ;
#332 = DIRECTION ( 'NONE',  ( 0.000000000000000000, -0.000000000000000000, -1.000000000000000000 ) ) ;
#333 = DIRECTION ( 'NONE',  ( -0.000000000000000000, 1.000000000000000000, -0.000000000000000000 ) ) ;
#334 = DIRECTION ( 'NONE',  ( 0.000000000000000000, 0.000000000000000000, 1.000000000000000000 ) ) ;
#335 = AXIS2_PLACEMENT_3D ( 'NONE', #148, #151, #50 ) ;
#336 = DIRECTION ( 'NONE',  ( -1.000000000000000000, 0.000000000000000000, 0.000000000000000000 ) ) ;
#337 = CARTESIAN_POINT ( 'NONE',  ( 3.092233167847066830E-15, -6.750000000000002665, 0.000000000000000000 ) ) ;
#338 = ORIENTED_EDGE ( 'NONE', *, *, #202, .F. ) ;
#339 = VERTEX_POINT ( 'NONE', #365 ) ;
#340 = AXIS2_PLACEMENT_3D ( 'NONE', #83, #234, #53 ) ;
#341 =( NAMED_UNIT ( * ) SI_UNIT ( $, .STERADIAN. ) SOLID_ANGLE_UNIT ( ) );
#342 = VERTEX_POINT ( 'NONE', #233 ) ;
#343 = SHAPE_DEFINITION_REPRESENTATION ( #370, #85 ) ;
#344 = EDGE_LOOP ( 'NONE', ( #348, #292 ) ) ;
#345 = CARTESIAN_POINT ( 'NONE',  ( 3.275930187719169946E-15, 11.75000000000000000, -1.500000000000000000 ) ) ;
#346 = ORIENTED_EDGE ( 'NONE', *, *, #369, .F. ) ;
#347 = CIRCLE ( 'NONE', #215, 1.225000000000000089 ) ;
#348 = ORIENTED_EDGE ( 'NONE', *, *, #33, .F. ) ;
#349 = DIRECTION ( 'NONE',  ( -0.000000000000000000, 1.000000000000000000, -0.000000000000000000 ) ) ;
#350 = VERTEX_POINT ( 'NONE', #386 ) ;
#351 = ADVANCED_FACE ( 'NONE', ( #263 ), #87, .T. ) ;
#352 = DIRECTION ( 'NONE',  ( 0.000000000000000000, 0.000000000000000000, 1.000000000000000000 ) ) ;
#353 = SURFACE_STYLE_USAGE ( .BOTH. , #111 ) ;
#354 = AXIS2_PLACEMENT_3D ( 'NONE', #211, #363, #331 ) ;
#355 = DIRECTION ( 'NONE',  ( -0.000000000000000000, 1.000000000000000000, 0.000000000000000000 ) ) ;
#356 = EDGE_LOOP ( 'NONE', ( #200, #286, #401, #79 ) ) ;
#357 = EDGE_CURVE ( 'NONE', #400, #373, #108, .T. ) ;
#358 = FACE_OUTER_BOUND ( 'NONE', #160, .T. ) ;
#359 = CYLINDRICAL_SURFACE ( 'NONE', #255, 1.225000000000000089 ) ;
#360 = DIRECTION ( 'NONE',  ( -0.000000000000000000, 1.000000000000000000, -0.000000000000000000 ) ) ;
#361 = FACE_OUTER_BOUND ( 'NONE', #132, .T. ) ;
#362 = CARTESIAN_POINT ( 'NONE',  ( 3.092233167847066830E-15, 11.75000000000000000, 1.500000000000000000 ) ) ;
#363 = DIRECTION ( 'NONE',  ( -0.000000000000000000, 1.000000000000000000, -0.000000000000000000 ) ) ;
#364 = FACE_OUTER_BOUND ( 'NONE', #356, .T. ) ;
#365 = CARTESIAN_POINT ( 'NONE',  ( 3.092233167847066830E-15, -10.24999999999999822, 1.225000000000000089 ) ) ;
#366 = DIRECTION ( 'NONE',  ( 0.000000000000000000, -1.000000000000000000, 0.000000000000000000 ) ) ;
#367 = CIRCLE ( 'NONE', #335, 1.000000000000000000 ) ;
#368 = DIRECTION ( 'NONE',  ( -0.000000000000000000, 1.000000000000000000, -0.000000000000000000 ) ) ;
#369 = EDGE_CURVE ( 'NONE', #101, #314, #114, .T. ) ;
#370 = PRODUCT_DEFINITION_SHAPE ( 'NONE', 'NONE',  #218 ) ;
#371 = ORIENTED_EDGE ( 'NONE', *, *, #166, .T. ) ;
#372 = DIRECTION ( 'NONE',  ( 0.000000000000000000, 0.000000000000000000, 1.000000000000000000 ) ) ;
#373 = VERTEX_POINT ( 'NONE', #116 ) ;
#374 = CIRCLE ( 'NONE', #137, 1.500000000000000000 ) ;
#375 = ORIENTED_EDGE ( 'NONE', *, *, #177, .F. ) ;
#376 = DIRECTION ( 'NONE',  ( 1.000000000000000000, 0.000000000000000000, 0.000000000000000000 ) ) ;
#377 = VERTEX_POINT ( 'NONE', #216 ) ;
#378 = CIRCLE ( 'NONE', #131, 1.506250000000004974 ) ;
#379 = COLOUR_RGB ( '',0.7921568627450980005, 0.8196078431372548767, 0.9333333333333333481 ) ;
#380 = FACE_OUTER_BOUND ( 'NONE', #141, .T. ) ;
#381 = EDGE_CURVE ( 'NONE', #317, #36, #77, .T. ) ;
#382 = SURFACE_STYLE_FILL_AREA ( #139 ) ;
#383 = DIRECTION ( 'NONE',  ( -0.000000000000000000, 1.000000000000000000, 0.000000000000000000 ) ) ;
#384 = AXIS2_PLACEMENT_3D ( 'NONE', #248, #194, #280 ) ;
#385 = VECTOR ( 'NONE', #54, 1000.000000000000000 ) ;
#386 = CARTESIAN_POINT ( 'NONE',  ( 3.092233167847066830E-15, -6.750000000000002665, 0.6499999999999995781 ) ) ;
#387 = DIRECTION ( 'NONE',  ( 0.000000000000000000, 0.9889363528682976190, 0.1483404529302446428 ) ) ;
#388 = DIRECTION ( 'NONE',  ( -0.000000000000000000, 1.000000000000000000, -0.000000000000000000 ) ) ;
#389 = DIRECTION ( 'NONE',  ( 0.000000000000000000, 0.000000000000000000, 1.000000000000000000 ) ) ;
#390 =( LENGTH_UNIT ( ) NAMED_UNIT ( * ) SI_UNIT ( .MILLI., .METRE. ) );
#391 = CARTESIAN_POINT ( 'NONE',  ( 3.092233167847066830E-15, 11.75000000000000000, 0.000000000000000000 ) ) ;
#392 = ADVANCED_FACE ( 'NONE', ( #144, #358 ), #90, .F. ) ;
#393 = CARTESIAN_POINT ( 'NONE',  ( 3.092233167847066830E-15, 11.75000000000000000, 0.000000000000000000 ) ) ;
#394 = CARTESIAN_POINT ( 'NONE',  ( 3.092233167847066830E-15, 11.75000000000000000, 0.000000000000000000 ) ) ;
#395 = DIRECTION ( 'NONE',  ( 0.000000000000000000, 0.000000000000000000, 1.000000000000000000 ) ) ;
#396 = EDGE_CURVE ( 'NONE', #193, #36, #18, .T. ) ;
#397 = DIRECTION ( 'NONE',  ( -0.000000000000000000, 1.000000000000000000, -0.000000000000000000 ) ) ;
#398 = AXIS2_PLACEMENT_3D ( 'NONE', #273, #150, #14 ) ;
#399 = ORIENTED_EDGE ( 'NONE', *, *, #166, .F. ) ;
#400 = VERTEX_POINT ( 'NONE', #304 ) ;
#401 = ORIENTED_EDGE ( 'NONE', *, *, #239, .F. ) ;
#402 = AXIS2_PLACEMENT_3D ( 'NONE', #394, #157, #334 ) ;
ENDSEC;
END-ISO-10303-21;
