ISO-10303-21;
HEADER;
FILE_DESCRIPTION (( 'STEP AP214' ),
    '1' );
FILE_NAME ('IF-PI-27.00-2.45.STEP',
    '2022-12-04T11:42:47',
    ( '' ),
    ( '' ),
    'SwSTEP 2.0',
    'SolidWorks 2022',
    '' );
FILE_SCHEMA (( 'AUTOMOTIVE_DESIGN' ));
ENDSEC;

DATA;
#1 = ORIENTED_EDGE ( 'NONE', *, *, #318, .F. ) ;
#2 = FACE_OUTER_BOUND ( 'NONE', #328, .T. ) ;
#3 = CYLINDRICAL_SURFACE ( 'NONE', #196, 0.6500000000000005773 ) ;
#4 = FACE_OUTER_BOUND ( 'NONE', #304, .T. ) ;
#5 = ORIENTED_EDGE ( 'NONE', *, *, #125, .T. ) ;
#6 = DIRECTION ( 'NONE',  ( -1.000000000000000000, 0.000000000000000000, 0.000000000000000000 ) ) ;
#7 = EDGE_LOOP ( 'NONE', ( #123, #149, #254, #204 ) ) ;
#8 = DIRECTION ( 'NONE',  ( -1.000000000000000000, 0.000000000000000000, 0.000000000000000000 ) ) ;
#9 = ADVANCED_FACE ( 'NONE', ( #184, #118 ), #276, .F. ) ;
#10 = VERTEX_POINT ( 'NONE', #116 ) ;
#11 = AXIS2_PLACEMENT_3D ( 'NONE', #31, #228, #94 ) ;
#12 = ORIENTED_EDGE ( 'NONE', *, *, #191, .F. ) ;
#13 = FILL_AREA_STYLE ('',( #265 ) ) ;
#14 = CIRCLE ( 'NONE', #85, 1.500000000000002665 ) ;
#15 = ADVANCED_FACE ( 'NONE', ( #145 ), #278, .T. ) ;
#16 = CARTESIAN_POINT ( 'NONE',  ( 1.225000000000003419, -10.49999999999999822, 0.000000000000000000 ) ) ;
#17 = CIRCLE ( 'NONE', #161, 0.6499999999999992450 ) ;
#18 = FACE_OUTER_BOUND ( 'NONE', #358, .T. ) ;
#19 = CARTESIAN_POINT ( 'NONE',  ( 1.500000000000003109, -10.50000000000000000, 1.836970198721032892E-16 ) ) ;
#20 = LINE ( 'NONE', #272, #69 ) ;
#21 = PRODUCT ( 'IF-PI-27.00-2.45', 'IF-PI-27.00-2.45', '', ( #143 ) ) ;
#22 = PLANE ( 'NONE',  #277 ) ;
#23 = STYLED_ITEM ( 'NONE', ( #388 ), #121 ) ;
#24 = LINE ( 'NONE', #60, #367 ) ;
#25 = EDGE_CURVE ( 'NONE', #381, #323, #24, .T. ) ;
#26 = CARTESIAN_POINT ( 'NONE',  ( 3.826677245425606033E-15, 13.50000000000000000, 0.000000000000000000 ) ) ;
#27 = ORIENTED_EDGE ( 'NONE', *, *, #231, .T. ) ;
#28 = TOROIDAL_SURFACE ( 'NONE', #396, -0.8562500000000036193, 1.506250000000002753 ) ;
#29 = LINE ( 'NONE', #400, #153 ) ;
#30 = CIRCLE ( 'NONE', #175, 1.225000000000003197 ) ;
#31 = CARTESIAN_POINT ( 'NONE',  ( -0.8562499999999999556, 12.74999999999999822, -1.048603821769925549E-16 ) ) ;
#32 = ORIENTED_EDGE ( 'NONE', *, *, #346, .F. ) ;
#33 = CARTESIAN_POINT ( 'NONE',  ( 7.086439343380750926E-16, -8.499999999999998224, 0.000000000000000000 ) ) ;
#34 = PRODUCT_DEFINITION_SHAPE ( 'NONE', 'NONE',  #47 ) ;
#35 = CARTESIAN_POINT ( 'NONE',  ( -1.499999999999998668, 13.50000000000000000, 0.000000000000000000 ) ) ;
#36 = DIRECTION ( 'NONE',  ( 1.417287868676150382E-16, 1.000000000000000000, -0.000000000000000000 ) ) ;
#37 = ORIENTED_EDGE ( 'NONE', *, *, #176, .F. ) ;
#38 = SURFACE_SIDE_STYLE ('',( #256 ) ) ;
#39 = DIRECTION ( 'NONE',  ( -1.000000000000000000, 0.000000000000000000, 0.000000000000000000 ) ) ;
#40 = VERTEX_POINT ( 'NONE', #244 ) ;
#41 = VERTEX_POINT ( 'NONE', #241 ) ;
#42 = ADVANCED_FACE ( 'NONE', ( #394 ), #22, .F. ) ;
#43 = CARTESIAN_POINT ( 'NONE',  ( 4.251863606028445231E-16, -10.50000000000000000, 0.000000000000000000 ) ) ;
#44 = CYLINDRICAL_SURFACE ( 'NONE', #365, 1.225000000000002975 ) ;
#45 = ORIENTED_EDGE ( 'NONE', *, *, #317, .F. ) ;
#46 = LINE ( 'NONE', #173, #309 ) ;
#47 = PRODUCT_DEFINITION ( 'UNKNOWN', '', #81, #133 ) ;
#48 = VERTEX_POINT ( 'NONE', #369 ) ;
#49 = SURFACE_STYLE_USAGE ( .BOTH. , #330 ) ;
#50 = AXIS2_PLACEMENT_3D ( 'NONE', #43, #371, #70 ) ;
#51 = CIRCLE ( 'NONE', #115, 1.000000000000003331 ) ;
#52 = DIRECTION ( 'NONE',  ( 1.417287868676150382E-16, 1.000000000000000000, -0.000000000000000000 ) ) ;
#53 = CIRCLE ( 'NONE', #243, 1.000000000000003331 ) ;
#54 =( NAMED_UNIT ( * ) SI_UNIT ( $, .STERADIAN. ) SOLID_ANGLE_UNIT ( ) );
#55 = CIRCLE ( 'NONE', #230, 0.4499999999999994560 ) ;
#56 = DIRECTION ( 'NONE',  ( 0.1483404529302446428, 0.9889363528682976190, 1.816646608650925483E-17 ) ) ;
#57 = CARTESIAN_POINT ( 'NONE',  ( -1.224999999999999201, 13.50000000000000000, 0.000000000000000000 ) ) ;
#58 = EDGE_CURVE ( 'NONE', #217, #10, #17, .T. ) ;
#59 = DIRECTION ( 'NONE',  ( -1.417287868676150382E-16, -1.000000000000000000, 0.000000000000000000 ) ) ;
#60 = CARTESIAN_POINT ( 'NONE',  ( 1.000000000000003331, -13.50000000000000000, 1.224646799147357151E-16 ) ) ;
#61 = CARTESIAN_POINT ( 'NONE',  ( 3.720380655274894162E-15, 12.75000000000000000, 0.000000000000000000 ) ) ;
#62 = EDGE_LOOP ( 'NONE', ( #168, #397 ) ) ;
#63 = COLOUR_RGB ( '',0.7921568627450980005, 0.8196078431372548767, 0.9333333333333333481 ) ;
#64 =( NAMED_UNIT ( * ) SI_UNIT ( $, .STERADIAN. ) SOLID_ANGLE_UNIT ( ) );
#65 = EDGE_LOOP ( 'NONE', ( #77, #234, #289, #150 ) ) ;
#66 = DIRECTION ( 'NONE',  ( 1.417287868676150382E-16, 1.000000000000000000, -0.000000000000000000 ) ) ;
#67 = COLOUR_RGB ( '',0.9686274509803921573, 0.8784313725490195957, 0.5999999999999999778 ) ;
#68 = FACE_OUTER_BOUND ( 'NONE', #351, .T. ) ;
#69 = VECTOR ( 'NONE', #391, 1000.000000000000114 ) ;
#70 = DIRECTION ( 'NONE',  ( -1.000000000000000000, 0.000000000000000000, 0.000000000000000000 ) ) ;
#71 = CYLINDRICAL_SURFACE ( 'NONE', #385, 1.225000000000002975 ) ;
#72 = EDGE_CURVE ( 'NONE', #381, #134, #53, .T. ) ;
#73 =( LENGTH_UNIT ( ) NAMED_UNIT ( * ) SI_UNIT ( .MILLI., .METRE. ) );
#74 = CYLINDRICAL_SURFACE ( 'NONE', #226, 0.6500000000000005773 ) ;
#75 = UNCERTAINTY_MEASURE_WITH_UNIT (LENGTH_MEASURE( 1.000000000000000082E-05 ), #237, 'distance_accuracy_value', 'NONE');
#76 = DIRECTION ( 'NONE',  ( 1.417287868676150382E-16, 1.000000000000000000, -0.000000000000000000 ) ) ;
#77 = ORIENTED_EDGE ( 'NONE', *, *, #370, .F. ) ;
#78 = DIRECTION ( 'NONE',  ( 0.000000000000000000, 0.000000000000000000, 1.000000000000000000 ) ) ;
#79 = ORIENTED_EDGE ( 'NONE', *, *, #58, .T. ) ;
#80 = PLANE ( 'NONE',  #137 ) ;
#81 = PRODUCT_DEFINITION_FORMATION_WITH_SPECIFIED_SOURCE ( 'ANY', '', #21, .NOT_KNOWN. ) ;
#82 = ADVANCED_FACE ( 'NONE', ( #113 ), #144, .F. ) ;
#83 = DIRECTION ( 'NONE',  ( 1.417287868676150382E-16, 1.000000000000000000, -0.000000000000000000 ) ) ;
#84 = LINE ( 'NONE', #57, #267 ) ;
#85 = AXIS2_PLACEMENT_3D ( 'NONE', #124, #291, #8 ) ;
#86 = EDGE_CURVE ( 'NONE', #401, #232, #353, .T. ) ;
#87 = DIRECTION ( 'NONE',  ( -1.000000000000000000, 1.417287868676150382E-16, 0.000000000000000000 ) ) ;
#88 = CIRCLE ( 'NONE', #315, 0.6499999999999992450 ) ;
#89 = EDGE_CURVE ( 'NONE', #107, #225, #298, .T. ) ;
#90 = CARTESIAN_POINT ( 'NONE',  ( 0.000000000000000000, -13.50000000000000000, 0.000000000000000000 ) ) ;
#91 = DIRECTION ( 'NONE',  ( 1.000000000000000000, -1.417287868676150382E-16, 0.000000000000000000 ) ) ;
#92 = EDGE_LOOP ( 'NONE', ( #1, #279, #327, #360 ) ) ;
#93 = DIRECTION ( 'NONE',  ( 1.417287868676150382E-16, 1.000000000000000000, -0.000000000000000000 ) ) ;
#94 = DIRECTION ( 'NONE',  ( 1.000000000000000000, 0.000000000000000000, 1.224646799147353207E-16 ) ) ;
#95 = CARTESIAN_POINT ( 'NONE',  ( 2.125931803014224588E-16, -11.99999999999999822, 0.000000000000000000 ) ) ;
#96 = VERTEX_POINT ( 'NONE', #300 ) ;
#97 = APPLICATION_CONTEXT ( 'automotive_design' ) ;
#98 = EDGE_CURVE ( 'NONE', #134, #306, #20, .T. ) ;
#99 = DIRECTION ( 'NONE',  ( -1.000000000000000000, 0.000000000000000000, 0.000000000000000000 ) ) ;
#100 = EDGE_CURVE ( 'NONE', #323, #225, #186, .T. ) ;
#101 = AXIS2_PLACEMENT_3D ( 'NONE', #339, #303, #183 ) ;
#102 = DIRECTION ( 'NONE',  ( 1.417287868676150382E-16, 1.000000000000000000, -0.000000000000000000 ) ) ;
#103 = DIRECTION ( 'NONE',  ( 1.417287868676150382E-16, 1.000000000000000000, -0.000000000000000000 ) ) ;
#104 = ORIENTED_EDGE ( 'NONE', *, *, #235, .F. ) ;
#105 =( GEOMETRIC_REPRESENTATION_CONTEXT ( 3 ) GLOBAL_UNCERTAINTY_ASSIGNED_CONTEXT ( ( #380 ) ) GLOBAL_UNIT_ASSIGNED_CONTEXT ( ( #73, #165, #64 ) ) REPRESENTATION_CONTEXT ( 'NONE', 'WORKASPACE' ) );
#106 = FACE_OUTER_BOUND ( 'NONE', #322, .T. ) ;
#107 = VERTEX_POINT ( 'NONE', #364 ) ;
#108 = APPLICATION_PROTOCOL_DEFINITION ( 'draft international standard', 'automotive_design', 1998, #236 ) ;
#109 = EDGE_CURVE ( 'NONE', #306, #107, #84, .T. ) ;
#110 = CARTESIAN_POINT ( 'NONE',  ( 3.826677245425606033E-15, 13.49999999999999822, 0.000000000000000000 ) ) ;
#111 = CARTESIAN_POINT ( 'NONE',  ( 1.225000000000006972, 13.50000000000000000, 1.500192328955511383E-16 ) ) ;
#112 = PRODUCT_RELATED_PRODUCT_CATEGORY ( 'part', '', ( #21 ) ) ;
#113 = FACE_OUTER_BOUND ( 'NONE', #62, .T. ) ;
#114 = PRESENTATION_LAYER_ASSIGNMENT (  '', '', ( #148 ) ) ;
#115 = AXIS2_PLACEMENT_3D ( 'NONE', #316, #229, #132 ) ;
#116 = CARTESIAN_POINT ( 'NONE',  ( 0.6500000000000029088, 12.75000000000000000, 7.960204194457812733E-17 ) ) ;
#117 = ORIENTED_EDGE ( 'NONE', *, *, #86, .F. ) ;
#118 = FACE_OUTER_BOUND ( 'NONE', #136, .T. ) ;
#119 = TOROIDAL_SURFACE ( 'NONE', #180, -0.8562500000000036193, 1.506250000000002753 ) ;
#120 = ORIENTED_EDGE ( 'NONE', *, *, #25, .T. ) ;
#121 = ADVANCED_BREP_SHAPE_REPRESENTATION ( 'IF-PI-27.00-2.45', ( #280, #220 ), #172 ) ;
#122 = DIRECTION ( 'NONE',  ( 1.417287868676150382E-16, 1.000000000000000000, -0.000000000000000000 ) ) ;
#123 = ORIENTED_EDGE ( 'NONE', *, *, #346, .T. ) ;
#124 = CARTESIAN_POINT ( 'NONE',  ( 4.251863606028445231E-16, -10.50000000000000000, 0.000000000000000000 ) ) ;
#125 = EDGE_CURVE ( 'NONE', #10, #217, #88, .T. ) ;
#126 = ORIENTED_EDGE ( 'NONE', *, *, #191, .T. ) ;
#127 = FILL_AREA_STYLE ('',( #162 ) ) ;
#128 = ORIENTED_EDGE ( 'NONE', *, *, #176, .T. ) ;
#129 = FACE_OUTER_BOUND ( 'NONE', #7, .T. ) ;
#130 = ORIENTED_EDGE ( 'NONE', *, *, #372, .T. ) ;
#131 = CARTESIAN_POINT ( 'NONE',  ( 0.000000000000000000, -13.50000000000000000, 0.000000000000000000 ) ) ;
#132 = DIRECTION ( 'NONE',  ( -1.000000000000000000, 0.000000000000000000, 0.000000000000000000 ) ) ;
#133 = PRODUCT_DEFINITION_CONTEXT ( 'detailed design', #97, 'design' ) ;
#134 = VERTEX_POINT ( 'NONE', #283 ) ;
#135 = FACE_OUTER_BOUND ( 'NONE', #320, .T. ) ;
#136 = EDGE_LOOP ( 'NONE', ( #332, #222 ) ) ;
#137 = AXIS2_PLACEMENT_3D ( 'NONE', #16, #83, #390 ) ;
#138 = MECHANICAL_DESIGN_GEOMETRIC_PRESENTATION_REPRESENTATION (  '', ( #148 ), #105 ) ;
#139 = DIRECTION ( 'NONE',  ( 1.417287868676150382E-16, 1.000000000000000000, -0.000000000000000000 ) ) ;
#140 = EDGE_CURVE ( 'NONE', #134, #381, #51, .T. ) ;
#141 = CARTESIAN_POINT ( 'NONE',  ( 1.000000000000003331, -13.50000000000000000, 1.362419564051434390E-16 ) ) ;
#142 =( NAMED_UNIT ( * ) SI_UNIT ( $, .STERADIAN. ) SOLID_ANGLE_UNIT ( ) );
#143 = PRODUCT_CONTEXT ( 'NONE', #236, 'mechanical' ) ;
#144 = PLANE ( 'NONE',  #331 ) ;
#145 = FACE_OUTER_BOUND ( 'NONE', #92, .T. ) ;
#146 = MECHANICAL_DESIGN_GEOMETRIC_PRESENTATION_REPRESENTATION (  '', ( #23 ), #294 ) ;
#147 = VERTEX_POINT ( 'NONE', #219 ) ;
#148 = STYLED_ITEM ( 'NONE', ( #347 ), #280 ) ;
#149 = ORIENTED_EDGE ( 'NONE', *, *, #370, .T. ) ;
#150 = ORIENTED_EDGE ( 'NONE', *, *, #125, .F. ) ;
#151 = CLOSED_SHELL ( 'NONE', ( #342, #160, #288, #259, #152, #82, #301, #194, #399, #15, #9, #178, #362, #42 ) ) ;
#152 = ADVANCED_FACE ( 'NONE', ( #68 ), #266, .T. ) ;
#153 = VECTOR ( 'NONE', #102, 1000.000000000000000 ) ;
#154 = CARTESIAN_POINT ( 'NONE',  ( -0.6499999999999968026, 13.50000000000000000, 0.000000000000000000 ) ) ;
#155 = CIRCLE ( 'NONE', #393, 1.225000000000003197 ) ;
#156 = DIRECTION ( 'NONE',  ( -1.000000000000000000, 1.417287868676150382E-16, 0.000000000000000000 ) ) ;
#157 = AXIS2_PLACEMENT_3D ( 'NONE', #201, #359, #382 ) ;
#158 = ORIENTED_EDGE ( 'NONE', *, *, #337, .F. ) ;
#159 = DIRECTION ( 'NONE',  ( 1.417287868676150382E-16, 1.000000000000000000, -0.000000000000000000 ) ) ;
#160 = ADVANCED_FACE ( 'NONE', ( #129 ), #3, .T. ) ;
#161 = AXIS2_PLACEMENT_3D ( 'NONE', #61, #392, #215 ) ;
#162 = FILL_AREA_STYLE_COLOUR ( '', #67 ) ;
#163 = ORIENTED_EDGE ( 'NONE', *, *, #89, .T. ) ;
#164 = DIRECTION ( 'NONE',  ( -1.000000000000000000, 0.000000000000000000, 0.000000000000000000 ) ) ;
#165 =( NAMED_UNIT ( * ) PLANE_ANGLE_UNIT ( ) SI_UNIT ( $, .RADIAN. ) );
#166 = ORIENTED_EDGE ( 'NONE', *, *, #231, .F. ) ;
#167 = DIRECTION ( 'NONE',  ( -1.000000000000000000, 0.000000000000000000, 0.000000000000000000 ) ) ;
#168 = ORIENTED_EDGE ( 'NONE', *, *, #140, .F. ) ;
#169 = CARTESIAN_POINT ( 'NONE',  ( 1.225000000000003419, -11.99999999999999822, 1.500192328955511629E-16 ) ) ;
#170 = DIRECTION ( 'NONE',  ( 1.417287868676150382E-16, 1.000000000000000000, -0.000000000000000000 ) ) ;
#171 = ORIENTED_EDGE ( 'NONE', *, *, #318, .T. ) ;
#172 =( GEOMETRIC_REPRESENTATION_CONTEXT ( 3 ) GLOBAL_UNCERTAINTY_ASSIGNED_CONTEXT ( ( #75 ) ) GLOBAL_UNIT_ASSIGNED_CONTEXT ( ( #237, #210, #142 ) ) REPRESENTATION_CONTEXT ( 'NONE', 'WORKASPACE' ) );
#173 = CARTESIAN_POINT ( 'NONE',  ( 0.6500000000000044631, 13.50000000000000000, 7.960204194457804105E-17 ) ) ;
#174 = EDGE_LOOP ( 'NONE', ( #166, #117 ) ) ;
#175 = AXIS2_PLACEMENT_3D ( 'NONE', #313, #205, #325 ) ;
#176 = EDGE_CURVE ( 'NONE', #217, #348, #387, .T. ) ;
#177 = CIRCLE ( 'NONE', #312, 0.4499999999999994560 ) ;
#178 = ADVANCED_FACE ( 'NONE', ( #258 ), #74, .T. ) ;
#179 = DIRECTION ( 'NONE',  ( -1.000000000000000000, 0.000000000000000000, 0.000000000000000000 ) ) ;
#180 = AXIS2_PLACEMENT_3D ( 'NONE', #398, #93, #156 ) ;
#181 = CARTESIAN_POINT ( 'NONE',  ( -0.4499999999999955702, 13.49999999999999822, 0.000000000000000000 ) ) ;
#182 =( NAMED_UNIT ( * ) PLANE_ANGLE_UNIT ( ) SI_UNIT ( $, .RADIAN. ) );
#183 = DIRECTION ( 'NONE',  ( -1.000000000000000000, 0.000000000000000000, 0.000000000000000000 ) ) ;
#184 = FACE_BOUND ( 'NONE', #199, .T. ) ;
#185 = DIRECTION ( 'NONE',  ( 1.417287868676150382E-16, 1.000000000000000000, -0.000000000000000000 ) ) ;
#186 = LINE ( 'NONE', #111, #214 ) ;
#187 = EDGE_CURVE ( 'NONE', #147, #348, #177, .T. ) ;
#188 = CARTESIAN_POINT ( 'NONE',  ( 1.004352451348295714E-32, -13.50000000000000000, 0.000000000000000000 ) ) ;
#189 = DIRECTION ( 'NONE',  ( 1.417287868676150382E-16, 1.000000000000000000, -0.000000000000000000 ) ) ;
#190 = VECTOR ( 'NONE', #247, 1000.000000000000000 ) ;
#191 = EDGE_CURVE ( 'NONE', #323, #306, #30, .T. ) ;
#192 = ORIENTED_EDGE ( 'NONE', *, *, #187, .F. ) ;
#193 = CARTESIAN_POINT ( 'NONE',  ( 1.225000000000003419, -10.50000000000000000, 1.500192328955511383E-16 ) ) ;
#194 = ADVANCED_FACE ( 'NONE', ( #135 ), #44, .T. ) ;
#195 = CARTESIAN_POINT ( 'NONE',  ( -1.225000000000002975, -11.99999999999999822, 0.000000000000000000 ) ) ;
#196 = AXIS2_PLACEMENT_3D ( 'NONE', #197, #36, #227 ) ;
#197 = CARTESIAN_POINT ( 'NONE',  ( 3.826677245425606033E-15, 13.50000000000000000, 0.000000000000000000 ) ) ;
#198 = AXIS2_PLACEMENT_3D ( 'NONE', #26, #395, #273 ) ;
#199 = EDGE_LOOP ( 'NONE', ( #32, #292 ) ) ;
#200 = CARTESIAN_POINT ( 'NONE',  ( 3.826677245425606033E-15, 13.50000000000000000, 0.000000000000000000 ) ) ;
#201 = CARTESIAN_POINT ( 'NONE',  ( 0.000000000000000000, -13.50000000000000000, 0.000000000000000000 ) ) ;
#202 = ORIENTED_EDGE ( 'NONE', *, *, #242, .F. ) ;
#203 = DIRECTION ( 'NONE',  ( 1.417287868676150382E-16, 1.000000000000000000, -0.000000000000000000 ) ) ;
#204 = ORIENTED_EDGE ( 'NONE', *, *, #299, .F. ) ;
#205 = DIRECTION ( 'NONE',  ( 1.417287868676150382E-16, 1.000000000000000000, -0.000000000000000000 ) ) ;
#206 = ORIENTED_EDGE ( 'NONE', *, *, #274, .F. ) ;
#207 = FACE_BOUND ( 'NONE', #295, .T. ) ;
#208 = SHAPE_DEFINITION_REPRESENTATION ( #34, #121 ) ;
#209 = SURFACE_STYLE_FILL_AREA ( #13 ) ;
#210 =( NAMED_UNIT ( * ) PLANE_ANGLE_UNIT ( ) SI_UNIT ( $, .RADIAN. ) );
#211 = CONICAL_SURFACE ( 'NONE', #357, 1.000000000000003331, 0.1488899476094971419 ) ;
#212 = AXIS2_PLACEMENT_3D ( 'NONE', #253, #218, #344 ) ;
#213 = DIRECTION ( 'NONE',  ( 1.000000000000000000, -1.417287868676150382E-16, 0.000000000000000000 ) ) ;
#214 = VECTOR ( 'NONE', #240, 1000.000000000000000 ) ;
#215 = DIRECTION ( 'NONE',  ( -1.000000000000000000, 0.000000000000000000, 0.000000000000000000 ) ) ;
#216 = CARTESIAN_POINT ( 'NONE',  ( 4.251863606028445231E-16, -10.50000000000000000, 0.000000000000000000 ) ) ;
#217 = VERTEX_POINT ( 'NONE', #285 ) ;
#218 = DIRECTION ( 'NONE',  ( 1.417287868676150382E-16, 1.000000000000000000, -0.000000000000000000 ) ) ;
#219 = CARTESIAN_POINT ( 'NONE',  ( 0.4500000000000033418, 13.49999999999999822, 6.735557395310435121E-17 ) ) ;
#220 = AXIS2_PLACEMENT_3D ( 'NONE', #239, #78, #329 ) ;
#221 = SURFACE_STYLE_USAGE ( .BOTH. , #38 ) ;
#222 = ORIENTED_EDGE ( 'NONE', *, *, #263, .T. ) ;
#223 = DIRECTION ( 'NONE',  ( 1.417287868676150382E-16, 1.000000000000000000, -0.000000000000000000 ) ) ;
#224 = CIRCLE ( 'NONE', #275, 1.500000000000002442 ) ;
#225 = VERTEX_POINT ( 'NONE', #193 ) ;
#226 = AXIS2_PLACEMENT_3D ( 'NONE', #379, #203, #99 ) ;
#227 = DIRECTION ( 'NONE',  ( -1.000000000000000000, 0.000000000000000000, 0.000000000000000000 ) ) ;
#228 = DIRECTION ( 'NONE',  ( -1.224646799147353207E-16, 1.735677051844621778E-32, 1.000000000000000000 ) ) ;
#229 = DIRECTION ( 'NONE',  ( 1.417287868676150382E-16, 1.000000000000000000, -0.000000000000000000 ) ) ;
#230 = AXIS2_PLACEMENT_3D ( 'NONE', #110, #270, #179 ) ;
#231 = EDGE_CURVE ( 'NONE', #232, #401, #14, .T. ) ;
#232 = VERTEX_POINT ( 'NONE', #354 ) ;
#233 = CARTESIAN_POINT ( 'NONE',  ( 3.826677245425606033E-15, 13.50000000000000000, 0.000000000000000000 ) ) ;
#234 = ORIENTED_EDGE ( 'NONE', *, *, #271, .T. ) ;
#235 = EDGE_CURVE ( 'NONE', #96, #40, #336, .T. ) ;
#236 = APPLICATION_CONTEXT ( 'automotive_design' ) ;
#237 =( LENGTH_UNIT ( ) NAMED_UNIT ( * ) SI_UNIT ( .MILLI., .METRE. ) );
#238 = CIRCLE ( 'NONE', #293, 0.6500000000000022427 ) ;
#239 = CARTESIAN_POINT ( 'NONE',  ( 0.000000000000000000, 0.000000000000000000, 0.000000000000000000 ) ) ;
#240 = DIRECTION ( 'NONE',  ( 1.417287868676150382E-16, 1.000000000000000000, -0.000000000000000000 ) ) ;
#241 = CARTESIAN_POINT ( 'NONE',  ( -0.6500000000000014655, -8.499999999999998224, 0.000000000000000000 ) ) ;
#242 = EDGE_CURVE ( 'NONE', #306, #323, #155, .T. ) ;
#243 = AXIS2_PLACEMENT_3D ( 'NONE', #90, #185, #338 ) ;
#244 = CARTESIAN_POINT ( 'NONE',  ( 1.500000000000003109, -8.499999999999998224, 1.836970198721032892E-16 ) ) ;
#245 = DIRECTION ( 'NONE',  ( -1.417287868676150382E-16, -1.000000000000000000, 0.000000000000000000 ) ) ;
#246 = ORIENTED_EDGE ( 'NONE', *, *, #140, .T. ) ;
#247 = DIRECTION ( 'NONE',  ( 1.417287868676150382E-16, 1.000000000000000000, -0.000000000000000000 ) ) ;
#248 = DIRECTION ( 'NONE',  ( -1.000000000000000000, 0.000000000000000000, 0.000000000000000000 ) ) ;
#249 = EDGE_LOOP ( 'NONE', ( #27, #171, #104, #45 ) ) ;
#250 = CARTESIAN_POINT ( 'NONE',  ( 7.086439343380750926E-16, -8.499999999999998224, 0.000000000000000000 ) ) ;
#251 = PRESENTATION_LAYER_ASSIGNMENT (  '', '', ( #23 ) ) ;
#252 = ORIENTED_EDGE ( 'NONE', *, *, #98, .F. ) ;
#253 = CARTESIAN_POINT ( 'NONE',  ( 7.086439343380750926E-16, -8.499999999999998224, 0.000000000000000000 ) ) ;
#254 = ORIENTED_EDGE ( 'NONE', *, *, #58, .F. ) ;
#255 = CARTESIAN_POINT ( 'NONE',  ( 3.826677245425606033E-15, 13.49999999999999822, 0.000000000000000000 ) ) ;
#256 = SURFACE_STYLE_FILL_AREA ( #127 ) ;
#257 = ORIENTED_EDGE ( 'NONE', *, *, #98, .T. ) ;
#258 = FACE_OUTER_BOUND ( 'NONE', #65, .T. ) ;
#259 = ADVANCED_FACE ( 'NONE', ( #106 ), #71, .T. ) ;
#260 = ORIENTED_EDGE ( 'NONE', *, *, #242, .T. ) ;
#261 = CARTESIAN_POINT ( 'NONE',  ( 3.720380655274894162E-15, 12.75000000000000000, 0.000000000000000000 ) ) ;
#262 = ORIENTED_EDGE ( 'NONE', *, *, #89, .F. ) ;
#263 = EDGE_CURVE ( 'NONE', #40, #96, #224, .T. ) ;
#264 = CIRCLE ( 'NONE', #50, 1.225000000000002975 ) ;
#265 = FILL_AREA_STYLE_COLOUR ( '', #63 ) ;
#266 = CONICAL_SURFACE ( 'NONE', #157, 1.000000000000003331, 0.1488899476094971419 ) ;
#267 = VECTOR ( 'NONE', #66, 1000.000000000000000 ) ;
#268 = CARTESIAN_POINT ( 'NONE',  ( 3.686287386450715076E-15, 12.74999999999999822, 0.000000000000000000 ) ) ;
#269 = FACE_OUTER_BOUND ( 'NONE', #174, .T. ) ;
#270 = DIRECTION ( 'NONE',  ( 1.417287868676150382E-16, 1.000000000000000000, -0.000000000000000000 ) ) ;
#271 = EDGE_CURVE ( 'NONE', #48, #41, #297, .T. ) ;
#272 = CARTESIAN_POINT ( 'NONE',  ( -1.000000000000003331, -13.50000000000000000, 0.000000000000000000 ) ) ;
#273 = DIRECTION ( 'NONE',  ( -1.000000000000000000, 0.000000000000000000, 0.000000000000000000 ) ) ;
#274 = EDGE_CURVE ( 'NONE', #225, #107, #264, .T. ) ;
#275 = AXIS2_PLACEMENT_3D ( 'NONE', #33, #159, #373 ) ;
#276 = PLANE ( 'NONE',  #378 ) ;
#277 = AXIS2_PLACEMENT_3D ( 'NONE', #302, #59, #213 ) ;
#278 = CYLINDRICAL_SURFACE ( 'NONE', #198, 1.500000000000002665 ) ;
#279 = ORIENTED_EDGE ( 'NONE', *, *, #86, .T. ) ;
#280 = MANIFOLD_SOLID_BREP ( 'Rotation1', #151 ) ;
#281 = LINE ( 'NONE', #35, #190 ) ;
#282 = EDGE_LOOP ( 'NONE', ( #130, #384 ) ) ;
#283 = CARTESIAN_POINT ( 'NONE',  ( -1.000000000000003331, -13.50000000000000000, 0.000000000000000000 ) ) ;
#284 = CYLINDRICAL_SURFACE ( 'NONE', #363, 1.500000000000002665 ) ;
#285 = CARTESIAN_POINT ( 'NONE',  ( -0.6499999999999954703, 12.75000000000000000, 0.000000000000000000 ) ) ;
#286 = DIRECTION ( 'NONE',  ( -1.000000000000000000, 0.000000000000000000, 0.000000000000000000 ) ) ;
#287 = DIRECTION ( 'NONE',  ( -1.000000000000000000, 0.000000000000000000, 0.000000000000000000 ) ) ;
#288 = ADVANCED_FACE ( 'NONE', ( #310 ), #284, .T. ) ;
#289 = ORIENTED_EDGE ( 'NONE', *, *, #299, .T. ) ;
#290 = ORIENTED_EDGE ( 'NONE', *, *, #100, .T. ) ;
#291 = DIRECTION ( 'NONE',  ( 1.417287868676150382E-16, 1.000000000000000000, -0.000000000000000000 ) ) ;
#292 = ORIENTED_EDGE ( 'NONE', *, *, #271, .F. ) ;
#293 = AXIS2_PLACEMENT_3D ( 'NONE', #308, #122, #248 ) ;
#294 =( GEOMETRIC_REPRESENTATION_CONTEXT ( 3 ) GLOBAL_UNCERTAINTY_ASSIGNED_CONTEXT ( ( #326 ) ) GLOBAL_UNIT_ASSIGNED_CONTEXT ( ( #296, #182, #54 ) ) REPRESENTATION_CONTEXT ( 'NONE', 'WORKASPACE' ) );
#295 = EDGE_LOOP ( 'NONE', ( #163, #341 ) ) ;
#296 =( LENGTH_UNIT ( ) NAMED_UNIT ( * ) SI_UNIT ( .MILLI., .METRE. ) );
#297 = CIRCLE ( 'NONE', #212, 0.6500000000000022427 ) ;
#298 = CIRCLE ( 'NONE', #389, 1.225000000000002975 ) ;
#299 = EDGE_CURVE ( 'NONE', #41, #217, #314, .T. ) ;
#300 = CARTESIAN_POINT ( 'NONE',  ( -1.500000000000001776, -8.499999999999998224, 0.000000000000000000 ) ) ;
#301 = ADVANCED_FACE ( 'NONE', ( #4 ), #211, .T. ) ;
#302 = CARTESIAN_POINT ( 'NONE',  ( 0.4500000000000032863, 13.49999999999999822, 0.000000000000000000 ) ) ;
#303 = DIRECTION ( 'NONE',  ( 1.417287868676150382E-16, 1.000000000000000000, -0.000000000000000000 ) ) ;
#304 = EDGE_LOOP ( 'NONE', ( #375, #311, #257, #12 ) ) ;
#305 = ORIENTED_EDGE ( 'NONE', *, *, #109, .T. ) ;
#306 = VERTEX_POINT ( 'NONE', #195 ) ;
#307 = DIRECTION ( 'NONE',  ( 1.417287868676150382E-16, 1.000000000000000000, -0.000000000000000000 ) ) ;
#308 = CARTESIAN_POINT ( 'NONE',  ( 7.086439343380750926E-16, -8.499999999999998224, 0.000000000000000000 ) ) ;
#309 = VECTOR ( 'NONE', #139, 1000.000000000000000 ) ;
#310 = FACE_OUTER_BOUND ( 'NONE', #249, .T. ) ;
#311 = ORIENTED_EDGE ( 'NONE', *, *, #72, .T. ) ;
#312 = AXIS2_PLACEMENT_3D ( 'NONE', #255, #402, #287 ) ;
#313 = CARTESIAN_POINT ( 'NONE',  ( 2.125931803014224588E-16, -11.99999999999999822, 0.000000000000000000 ) ) ;
#314 = LINE ( 'NONE', #154, #333 ) ;
#315 = AXIS2_PLACEMENT_3D ( 'NONE', #261, #103, #350 ) ;
#316 = CARTESIAN_POINT ( 'NONE',  ( 0.000000000000000000, -13.50000000000000000, 0.000000000000000000 ) ) ;
#317 = EDGE_CURVE ( 'NONE', #232, #96, #281, .T. ) ;
#318 = EDGE_CURVE ( 'NONE', #401, #40, #29, .T. ) ;
#319 = DIRECTION ( 'NONE',  ( 1.417287868676150382E-16, 1.000000000000000000, -0.000000000000000000 ) ) ;
#320 = EDGE_LOOP ( 'NONE', ( #343, #126, #305, #206 ) ) ;
#321 = CARTESIAN_POINT ( 'NONE',  ( 0.8562500000000072831, 12.74999999999999822, 0.000000000000000000 ) ) ;
#322 = EDGE_LOOP ( 'NONE', ( #260, #290, #262, #386 ) ) ;
#323 = VERTEX_POINT ( 'NONE', #169 ) ;
#324 = DIRECTION ( 'NONE',  ( 1.417287868676150382E-16, 1.000000000000000000, -0.000000000000000000 ) ) ;
#325 = DIRECTION ( 'NONE',  ( -1.000000000000000000, 0.000000000000000000, 0.000000000000000000 ) ) ;
#326 = UNCERTAINTY_MEASURE_WITH_UNIT (LENGTH_MEASURE( 1.000000000000000082E-05 ), #296, 'distance_accuracy_value', 'NONE');
#327 = ORIENTED_EDGE ( 'NONE', *, *, #317, .T. ) ;
#328 = EDGE_LOOP ( 'NONE', ( #79, #368, #355, #37 ) ) ;
#329 = DIRECTION ( 'NONE',  ( 1.000000000000000000, 0.000000000000000000, 0.000000000000000000 ) ) ;
#330 = SURFACE_SIDE_STYLE ('',( #209 ) ) ;
#331 = AXIS2_PLACEMENT_3D ( 'NONE', #188, #366, #87 ) ;
#332 = ORIENTED_EDGE ( 'NONE', *, *, #235, .T. ) ;
#333 = VECTOR ( 'NONE', #319, 1000.000000000000000 ) ;
#334 = DIRECTION ( 'NONE',  ( -1.000000000000000000, 1.417287868676150382E-16, 0.000000000000000000 ) ) ;
#335 = CARTESIAN_POINT ( 'NONE',  ( 1.500000000000003331, -8.499999999999998224, 0.000000000000000000 ) ) ;
#336 = CIRCLE ( 'NONE', #349, 1.500000000000002442 ) ;
#337 = EDGE_CURVE ( 'NONE', #10, #147, #383, .T. ) ;
#338 = DIRECTION ( 'NONE',  ( -1.000000000000000000, 0.000000000000000000, 0.000000000000000000 ) ) ;
#339 = CARTESIAN_POINT ( 'NONE',  ( 4.251863606028445231E-16, -10.50000000000000000, 0.000000000000000000 ) ) ;
#340 = DIRECTION ( 'NONE',  ( -1.000000000000000000, 0.000000000000000000, 0.000000000000000000 ) ) ;
#341 = ORIENTED_EDGE ( 'NONE', *, *, #274, .T. ) ;
#342 = ADVANCED_FACE ( 'NONE', ( #2 ), #119, .T. ) ;
#343 = ORIENTED_EDGE ( 'NONE', *, *, #100, .F. ) ;
#344 = DIRECTION ( 'NONE',  ( -1.000000000000000000, 0.000000000000000000, 0.000000000000000000 ) ) ;
#345 = DIRECTION ( 'NONE',  ( -1.000000000000000000, 0.000000000000000000, 0.000000000000000000 ) ) ;
#346 = EDGE_CURVE ( 'NONE', #41, #48, #238, .T. ) ;
#347 = PRESENTATION_STYLE_ASSIGNMENT (( #221 ) ) ;
#348 = VERTEX_POINT ( 'NONE', #181 ) ;
#349 = AXIS2_PLACEMENT_3D ( 'NONE', #250, #374, #39 ) ;
#350 = DIRECTION ( 'NONE',  ( -1.000000000000000000, 0.000000000000000000, 0.000000000000000000 ) ) ;
#351 = EDGE_LOOP ( 'NONE', ( #246, #120, #202, #252 ) ) ;
#352 = AXIS2_PLACEMENT_3D ( 'NONE', #321, #356, #164 ) ;
#353 = CIRCLE ( 'NONE', #101, 1.500000000000002665 ) ;
#354 = CARTESIAN_POINT ( 'NONE',  ( -1.500000000000002220, -10.50000000000000000, 0.000000000000000000 ) ) ;
#355 = ORIENTED_EDGE ( 'NONE', *, *, #372, .F. ) ;
#356 = DIRECTION ( 'NONE',  ( -0.000000000000000000, 0.000000000000000000, -1.000000000000000000 ) ) ;
#357 = AXIS2_PLACEMENT_3D ( 'NONE', #131, #324, #377 ) ;
#358 = EDGE_LOOP ( 'NONE', ( #158, #5, #128, #192 ) ) ;
#359 = DIRECTION ( 'NONE',  ( 1.417287868676150382E-16, 1.000000000000000000, -0.000000000000000000 ) ) ;
#360 = ORIENTED_EDGE ( 'NONE', *, *, #263, .F. ) ;
#361 = APPLICATION_PROTOCOL_DEFINITION ( 'draft international standard', 'automotive_design', 1998, #97 ) ;
#362 = ADVANCED_FACE ( 'NONE', ( #18 ), #28, .T. ) ;
#363 = AXIS2_PLACEMENT_3D ( 'NONE', #200, #189, #286 ) ;
#364 = CARTESIAN_POINT ( 'NONE',  ( -1.225000000000002531, -10.50000000000000000, 0.000000000000000000 ) ) ;
#365 = AXIS2_PLACEMENT_3D ( 'NONE', #376, #170, #6 ) ;
#366 = DIRECTION ( 'NONE',  ( 1.417287868676150382E-16, 1.000000000000000000, -0.000000000000000000 ) ) ;
#367 = VECTOR ( 'NONE', #56, 999.9999999999998863 ) ;
#368 = ORIENTED_EDGE ( 'NONE', *, *, #337, .T. ) ;
#369 = CARTESIAN_POINT ( 'NONE',  ( 0.6500000000000030198, -8.499999999999998224, 7.960204194457813966E-17 ) ) ;
#370 = EDGE_CURVE ( 'NONE', #48, #10, #46, .T. ) ;
#371 = DIRECTION ( 'NONE',  ( 1.417287868676150382E-16, 1.000000000000000000, -0.000000000000000000 ) ) ;
#372 = EDGE_CURVE ( 'NONE', #348, #147, #55, .T. ) ;
#373 = DIRECTION ( 'NONE',  ( -1.000000000000000000, 0.000000000000000000, 0.000000000000000000 ) ) ;
#374 = DIRECTION ( 'NONE',  ( 1.417287868676150382E-16, 1.000000000000000000, -0.000000000000000000 ) ) ;
#375 = ORIENTED_EDGE ( 'NONE', *, *, #25, .F. ) ;
#376 = CARTESIAN_POINT ( 'NONE',  ( 3.826677245425606033E-15, 13.50000000000000000, 0.000000000000000000 ) ) ;
#377 = DIRECTION ( 'NONE',  ( -1.000000000000000000, 0.000000000000000000, 0.000000000000000000 ) ) ;
#378 = AXIS2_PLACEMENT_3D ( 'NONE', #335, #245, #91 ) ;
#379 = CARTESIAN_POINT ( 'NONE',  ( 3.826677245425606033E-15, 13.50000000000000000, 0.000000000000000000 ) ) ;
#380 = UNCERTAINTY_MEASURE_WITH_UNIT (LENGTH_MEASURE( 1.000000000000000082E-05 ), #73, 'distance_accuracy_value', 'NONE');
#381 = VERTEX_POINT ( 'NONE', #141 ) ;
#382 = DIRECTION ( 'NONE',  ( -1.000000000000000000, 0.000000000000000000, 0.000000000000000000 ) ) ;
#383 = CIRCLE ( 'NONE', #11, 1.506250000000002753 ) ;
#384 = ORIENTED_EDGE ( 'NONE', *, *, #187, .T. ) ;
#385 = AXIS2_PLACEMENT_3D ( 'NONE', #233, #76, #345 ) ;
#386 = ORIENTED_EDGE ( 'NONE', *, *, #109, .F. ) ;
#387 = CIRCLE ( 'NONE', #352, 1.506250000000002753 ) ;
#388 = PRESENTATION_STYLE_ASSIGNMENT (( #49 ) ) ;
#389 = AXIS2_PLACEMENT_3D ( 'NONE', #216, #307, #340 ) ;
#390 = DIRECTION ( 'NONE',  ( -1.000000000000000000, 1.417287868676150382E-16, 0.000000000000000000 ) ) ;
#391 = DIRECTION ( 'NONE',  ( -0.1483404529302443375, 0.9889363528682976190, 0.000000000000000000 ) ) ;
#392 = DIRECTION ( 'NONE',  ( 1.417287868676150382E-16, 1.000000000000000000, -0.000000000000000000 ) ) ;
#393 = AXIS2_PLACEMENT_3D ( 'NONE', #95, #223, #167 ) ;
#394 = FACE_OUTER_BOUND ( 'NONE', #282, .T. ) ;
#395 = DIRECTION ( 'NONE',  ( 1.417287868676150382E-16, 1.000000000000000000, -0.000000000000000000 ) ) ;
#396 = AXIS2_PLACEMENT_3D ( 'NONE', #268, #52, #334 ) ;
#397 = ORIENTED_EDGE ( 'NONE', *, *, #72, .F. ) ;
#398 = CARTESIAN_POINT ( 'NONE',  ( 3.686287386450715076E-15, 12.74999999999999822, 0.000000000000000000 ) ) ;
#399 = ADVANCED_FACE ( 'NONE', ( #269, #207 ), #80, .F. ) ;
#400 = CARTESIAN_POINT ( 'NONE',  ( 1.500000000000006439, 13.50000000000000000, 1.836970198721032892E-16 ) ) ;
#401 = VERTEX_POINT ( 'NONE', #19 ) ;
#402 = DIRECTION ( 'NONE',  ( 1.417287868676150382E-16, 1.000000000000000000, -0.000000000000000000 ) ) ;
ENDSEC;
END-ISO-10303-21;
